Mcfly

home > Mcfly

Transylvania Bass Tab

Mcfly

Difficulty: BeginnerBeginner

by leeti

tuner correct add songbook print version text version save to e-mail
chordsukulelecavacokeyboardtabbassdrumsharmonicsflute Guitar Pro
chords

Transylvania

  		Intro/Verso "Leave's a note..." 
G|------------------------------| 
D|------------------------------| 
A|-------------7~---4~----------| 
E|4~----4~---------------6~-----| 

Ponte 
G|-----------|    |-------| 
D|-----------|    |-------| 
A|6-4--------|    |6-4----| 
E|-----7-6---| x3 |----7--| 

Refrão  
G|------------------------------------------| 
D|66-9-66-9---------------6----6------------| 
A|----------66-9-66-9--77---77-----9--------| 
E|-------------------------------7---7-6----| 

G|-------------------------------------------| 
D|66-9-66-9------------44-7-44-7-------------| 
A|----------66-9-66-9------------2-4-6-2-4-2-| 
E|-------------------------------------------| 

G|-----------------------------------------| 
D|-----------------------------------------| 
A|7---6-----6----6-7---7---6--6-6-6-6------| 
E|--7----9-----7---------7-------------4---| 

Verso 
G|---------------------------------------------------| 
D|---------------------------------------------------| 
A|------4-6666-------4-6666--9-7-7-7-6-4-4-4---------| 
E|4-4-4--------4-4-4-------------------------7-6666--| 

Ponte 
G|-----------|    |-----| 
D|-----------|    |-----| 
A|6-4--------|    |6----| 
E|-----7-6---| x3 |-----| 

Refrão 
G|----------------------------------------| 
D|66-9-66-9---------------6----6----------| 
A|----------66-9-66-9--77---77------------| 
E|--------------------------------77-6~---| 

G|-------------------------------------------| 
D|66-9-66-9------------44-7-44-7-------------| 
A|----------66-9-66-9------------2-4-6-2-4-2-| 
E|-------------------------------------------| 

"Who's your lover??" 
G|---------------------------------------8------| 
D|-------------------------------------8---8----| 
A|7---7-6---6-4---4-6---6-7--7---7-6-6----------| 
E|--7-----7-----4-----7--------7-------------4--| 

Ponte 
G|------------------------------------------| 
D|66-9-66-9---------------6----6------------| 
A|----------66-9-66-9--77---77-----9--------| 
E|-------------------------------7---7-6----| 

G|---------------------------------------| 
D|66-9-66-9------------44-7-44-7---------| 
A|----------66-9-66-9--------------9-----| 
E|-------------------------------7---7-6-| 

G|---------------------------------------------| 
D|---------------------------------------------| 
A|7---7-6---6-4---4-6---6-7--7--6-6-6-6---6-7--| 
E|--7-----7-----4-----7-----------------4------| 

Refrão 
G|------------------------------------------| 
D|66-9-66-9---------------6----6------------| 
A|----------66-9-66-9--77---77-----9--------| 
E|-------------------------------7---7-6----| 

G|-------------------------------------------| 
D|66-9-66-9------------44-7-44-7-------------| 
A|----------66-9-66-9------------2-4-6-2-4-2-| 
E|-------------------------------------------| 

Outro 
G|-----------------------------|   |------------------------| 
D|-----------------------------|   |------------------------| 
A|7---7-6---6-4---4-6---6-7--7-|   |7-7/9-7-6---6-4---4-6---| 
E|--7-----7-----4-----7--------|x5 |----------7-----4-----7-| 

|------------------------------| 
|------------------------------| 
|7----7-6----6-4----4-6----6-7-| 
|--77-----77-----77-----77-----| 

G|---------------66-88-44-8888888-88888|-|88-66--------|    |-----| 
D|------66-88-99-----------------------| |------99-88--|    |-6---| 
A|77-99--------------------------------| |-------------|    |-----| 
E|-------------------------------------| |-------------| x3 |-----| 


créditos: Valerie L 
	  

Search Paypal
auto scroll beats size up size down change color hide chords drawings
tab show chords e-chords YouTube Clip e-chords hide all tabs e-chords go to top tab