Mcfly

Please, Please

Mcfly

bass

by  LEETI

save to print version add songbook text version e-mail correct tuner
chordsukulelecavacokeyboardtabbassdrumsharmonicaflute Guitar Pro
close

there isn't a video lesson for this song

chords

Please, Please

	  		Intro "Please, please.." 
G|----------------------------| 
D|----------------------------| 
A|----------------------------| 
E|-7-22/1010-55-5-7-77-7-7-77-| 

Verso "Easy girl..." 
G|-----------------------------------------------------| 
D|---------------44------------------------------------| 
A|777----5-5-5h7----777-----5----------777-----5-5-55-5| 
E|---5h7----------------5h7---2-3-4-5------5h7---------| 

Ponte "I wanna..." 
G|---------------88-66-------------66-77-66----------------11----------11---------| 
D|---------66-99-------99----66-99----------99-66----88-11-------88-11------------| 
A|---66-99-----------------77---------------------99----------99----------7-99(x5)| 
E|77------------------------------------------------------------------------------| 

Refrão 
G|---------------------------------------------------------------| 
D|---------------------------------------------------------------| 
A|------------------------------------999-7-7-7-7----------------| 
E|77-22-00000000-77-22-00-44-55-66-77-------------5~--4-2-222222-| 

Intro x1 

Verso 
G|---------------------------------------------------------------------------------| 
D|7-999999999-799999999999-9999999999999999-------------------44-------------------| 
A|------------------------------------------7-7-7-----5-5-5h7----7-7-7-----5-5-555-| 
E|------------------------------------------------5h7------------------5h7---------| 

Ponte x1 
Refrão x2 
Intro x1 

Ponte 
G|-11~-----11~---9-9-9-9--11~---------------| 
D|------------------------------------------| 
A|-------------------------------------1-2-3| 
E|---------------------------1-2-3-4-5------| 

Verso "Girl I'm talking to you now..." 
G|-----------------------------------------------------------------------| 
D|---------------------------------------------------66------------------| 
A|4-4-4-----2-2-2h4-66-4-4-4-----2222-9-9----7-7-7h9----9-9-9----7-7-7-77| 
E|------2h4------------------2h4----------7h9----------------7h9---------| 

Ponte 
G|---------------1010-88-------------88-99-88-------------------1313----------| 
D|---------88-11---------11----88-11----------11-88---1010-1313---------------| 
A|---88-11------------------99----------------------11-------------x2-9-11-x5-| 
E|99--------------------------------------------------------------------------| 

Refrão, sem baixo até 2:33 
G|----------------------------------------------------------------------------------| 
D|------------------------------------11-99-----------------------------------------| 
A|------------------------------------------11----111111(11's)-9-9-9-9--------------| 
E|7~---6~--4~--99-66-7-7-7-7~-99-66-7----------99----------------------7~-6-4-44444-| 

Outro 
G|-----------------------------1010-88---------------------------------------| 
D|-----------------------88-11--------11-------------------------------------| 
A|-----------------88-11-----------------------------------------------------| 
E|9-44/1212-7-7-99-----------------------9-44-1212-77-99-11-22-33-44-33-22-11| 

"Please, please lindsay.." 
G|--------------------------------| 
D|--------------------------------| 
A|-----------------4---------4----| 
E|9-44/1212-77-x3----44-2~--------| 




créditos: Valerie L 
		  

auto scroll beats size up size down change color hide chords drawings
tab show chords e-chords YouTube Clip e-chords hide all tabs e-chords go to top tab

share