Matanza

home > Matanza

Tempo Ruim Bass Tab

Matanza

Difficulty: nolevelnolevel

by Bagnara

tuner correct add songbook print version text version save to e-mail
chordsukulelecavacokeyboardtabbassdrumsharmonicsflute Guitar Pro
chords

Tempo Ruim

  		

Intro: 

G|------------------------------------------- 
D|------------------------------------------- 
A|------------------------------------------- 
E|-00*-3-2-000------------------------------ 
  
  Ergam se os copos por quem vai partir 
G|------------------------------------------- 
D|-------------------------------------------       
A|----55*------------------------------------       
E|-00*---00*-3-2-000------------------------- 

  Longo será o caminho a seguir 
G|------------------------------------------- 
D|-------------------------------------------       
A|----55*------------------------------------       
E|-00*---000-000*---------------------------- 


 Nada será como costuma ser 
G|------------------------------------------- 
D|------------------------------------------- 
A|------55*-------33*------------------------ 
E|-33*-------55*----------------------------- 

nada vai ser fácil pra você 
G|------------------------------------------- 
D|------------------------------------------- 
A|------55*---------------------------------- 
E|-33*------00*-3-2-000---------------------- 

Não faça o mesmo que fez o seu pai  
G|------------------------------------------- 
D|-------------------------------------------       
A|----55*------------------------------------       
E|-00*---00*-3-2-000------------------------- 

Não leve armas lá aonde vai 
G|------------------------------------------- 
D|-------------------------------------------       
A|----55*------------------------------------       
E|-00*---000-000*---------------------------- 

Tantos eu já vi pagando pra ver 
G|------------------------------------------- 
D|------------------------------------------- 
A|------55*-------33*------------------------ 
E|-33*-------55*----------------------------- 

não dá tempo de se arrepender  
G|------------------------------------------- 
D|------------------------------------------- 
A|------55*---------------------------------- 
E|-33*------00*-3-2-000---------------------- 

Nada que já não deva saber 
G|------------------------------------------- 
D|------------------------------------------- 
A|------55*-------33*------------------------ 
E|-33*-------55*----------------------------- 

não há nada que não possa ver  
G|------------------------------------------- 
D|------------------------------------------- 
A|------55*---33*---------------------------- 
E|-33*--------------------------------------- 

REFRÃO: 

Quero que a estrada venha sempre até você  
G|------------------------------------------- 
D|------------------------------------------- 
A|------55*-------33*------------------------ 
E|-33*-------55*----------------------------- 

E que o vento esteja sempre a seu favor  
G|------------------------------------------- 
D|------------------------------------------- 
A|------55*---33*---------------------------- 
E|-33*--------------------------------------- 

(A música toda segue essa estrutura, espero ter ajudado!) 
	  

Search Paypal
auto scroll beats size up size down change color hide chords drawings
tab show chords e-chords YouTube Clip e-chords hide all tabs e-chords go to top tab