Matanza

home > Matanza

Matarei Bass Tab

Matanza

Difficulty: AdvancedAdvanced

by VELHO

tuner correct add songbook print version text version save to e-mail
chordsukulelecavacokeyboardtabbassdrumsharmonicsflute Guitar Pro
chords

Matarei

Key:  A More
Matarei Key EE
Matarei Key FF
Matarei Key F#F#
Matarei Key GG(one step down)
Matarei Key G#G#(half step down)
Matarei Key AA(original key)
Matarei Key A#A#(half step up)
Matarei Key BB(one step up)
Matarei Key CC
Matarei Key C#C#
Matarei Key DD
Matarei Key D#D#
  		Intro 
G------------------ 
D------------------ 
A--------------7~\- 
E--5-5---5-5---5~\- 

G-------------------------------------- 
D-12-10----10-9----9-8----8-7---7-5---- 
A-------12------10-----9------8-----7-- 
E-------------------------------------- 

G--------------------------------------------------------- 
D--------------------------------------------------------- 
A--------------------------------------------------------- 
E-5-556-665-556-6-3--5-556-665-556-6-8--5-556-665-556-6-3- 

G-------------------------------------- 
D-12-10----10-9----9-8----8-7---7-5---- 
A-------12------10-----9------8-----7-- 
E-------------------------------------- 

G-------------------------------------- 
D-------------------------------------- 
A-------------------------------------- 
E-5-556-665-556-6-3--5-556-665-556-6-8- 

Verso 
G------------------------------------| 
D------------------------------------| 
A------------------------------------| 
E-5-5-5-5-5-5-5-5-5-5-5-5-5-5-5-5-0^5| 2x 

Refrão 
G-------------------------------------- 
D-------------------------------------- 
A-------------------------------------- 
E-5-556-665-556-6-3--5-556-665-556-6-8- 

G--------------------------------- 
D--------------------------------- 
A-5-5-5-5-5-5-5-5-5-5-5-5-5-5-5-5- 
E--------------------------------- 

G------------------- 
D------------------- 
A------------------- 
E-5-556-665-556-6-3- 

G--------------------------------- 
D--------------------------------- 
A-5-5-5-5-5-5-5-5-5-5-5-5-5-5-5-5- 
E--------------------------------- 

G-------------- 
D-------------- 
A-------------- 
E-5-556-66-88'- 

G--------------------------------------| 
D--------------------------------------| 
A--------------------------------------| 
E-5-556-665-556-6-3--5-556-665-556-6-8-| 2x 

G-----------------------------7-7-7-7--10-10-10-10--------------------7-7-7-7--10-10-10-10- 
D-----------6-6-6-6--9-9-9-9------------------------6-6-6-6--9-9-9-9----------------------- 
A--7-7-7-7--------------------------------------------------------------------------------- 
E------------------------------------------------------------------------------------------ 

G--------------------------------------| 
D--------------------------------------| 
A--------------------------------------| 
E-5-556-665-556-6-3--5-556-665-556-6-8-| 2x 

e agora o resto é a mesma coisa. 
	  

Search Paypal
auto scroll beats size up size down change color hide chords drawings
tab show chords e-chords YouTube Clip e-chords hide all tabs e-chords go to top tab