Mars Argo

Rough Untitled

Mars Argo

bass nolevel nolevel

by  JESSGOMES

save to print version add songbook text version e-mail correct tuner
chordsukulelecavacokeyboardtabbassdrumsharmonicaflute Guitar Pro
close

there isn't a video lesson for this song

chords

Rough Untitled

	  		Main Riff 
G|--------------------------------| 
D|--------------------------------| 
A|-------------5---5-7/8\7-55-7---| 
E|-6---6-5---5--------------------| 

G|--------------------------------| 
D|--------------------------------| 
A|-------------5---5-7/8\7-55-7---| 
E|-6---6-5---5--------------------| 


************************************ 

| /   Slide up 
| \   Slide down 

************************************ 
		  

See also:

bass Deep Purple - Smoke On The Water (ver. 3) bass Deep Purple - Ted The Mechanic bass Deep Purple - Fire Ball bass Deep Purple - Black Night bass Deep Purple - Lady Double Dealer bass Deep Purple - Knocking At Your Back Door
e-chords

Other versions:

bass Mars Argo - Rough Untitled
auto scroll beats size up size down change color hide chords drawings
tab show chords e-chords YouTube Clip e-chords hide all tabs e-chords go to top tab

share with facebook