Mark Eric

Move With The Dawn

Mark Eric

bass

by  RENEJUNIOR

save to print version add songbook text version e-mail correct tuner
chordsukulelecavacokeyboardtabbassdrumsharmonicaflute Guitar Pro
close

there isn't a video lesson for this song

chords

Move With The Dawn

	  		 
0:04 

G|--------------------------------------------2-------------------| 
D|7---------------------------------------------------2-----------| 
A|------------------------7---\---0-----------------------3---2---| 
E|----------------------------------------------------------------| 

G|--------------------------------------------5-------2-----------|. 
D|2---------------------------2---------------------------5---2---|. 
A|------------2-----------2-------3-------------------------------|. 
E|--------------------3-------------------------------------------|. 
                                                                   . x2 
G|----------------------------------------------------------------|. 
D|3---------------------------3---3---------------------------3---|. 
A|------------3-------0---3-------------------3-------0---3-------|. 
E|----------------------------------------------------------------|. 

0:21 

G|----------------------------------------------------------------| 
D|5-----------------------5---4---3---------------------------3---| x3 
A|------------5-------------------------------3-------------------| 
E|----------------------------------------------------------------| 

G|2---------------------------------------------------------------| 
D|------------2-----------------------2---2---2---2---2---2---2---| 
A|--------------------3-------0-----------------------------------| 
E|----------------------------------------------------------------| 

G|----------------------------------------------------------------| 
D|----------------------------3-----------3---2-----------2-------| 
A|3-------3---5-------0---5-----------3---------------2-------0---| 
E|----3-----------------------------------------------------------| 

G|------------------------------------7---------------------------| 
D|--------------------------------------------5-------------------| 
A|----------------------------------------------------3---0---3---| 
E|----------------------------------------------------------------| 

0:42 

G|--------------------------------------------5-------2-----------|. 
D|2---------------------------2---------------------------5---2---|. 
A|------------2-----------2-------3-------------------------------|. 
E|--------------------3-------------------------------------------|. 
                                                                   . x2 
G|----------------------------------------------------------------|. 
D|3---------------------------3---3---------------------------3---|. 
A|------------3-------0---3-------------------3-------0---3-------|. 
E|----------------------------------------------------------------|. 

0:56 

G|----------------------------------------------------------------| 
D|5-----------------------5---4---3---------------------------3---| x3 
A|------------5-------------------------------3-------------------| 
E|----------------------------------------------------------------| 

G|2---------------------------------------------------------------| 
D|------------2-----------------------2---2---2---2---2---2---2---| 
A|--------------------3-------0-----------------------------------| 
E|----------------------------------------------------------------| 

G|----------------------------------------------------------------| 
D|----------------------------3-----------3---2-----------2-------| 
A|3-------3---5-------0---5-----------3---------------2-------0---| 
E|----3-----------------------------------------------------------| 

G|------------------------------------7---------------------------| 
D|--------------------------------------------5-------------------| 
A|----------------------------------------------------3-------2---| 
E|----------------------------------------------------------------| 

1:17 

G|----------------------------------------------------------------| 
D|----------------------------------------------------------------| 
A|0-----------0-------------------0-----------0-------3-------4---| 
E|--------------------1-------1-----------------------------------| 

G|----------------------------------------------------------------| 
D|----------------------------------------------------------------| 
A|5-----------5-------3-------4---5-----------5-------2-------5---| 
E|----------------------------------------------------------------| 

G|----------------------------------------------------------------| 
D|2-----------2---------------2-------------------------------2---| 
A|--------------------2-----------5-----------5-------3-----------| 
E|----------------------------------------------------------------| 

G|------------2---------------------------------------------------| 
D|------------------------------------2---2---2---2---2---2---2---| 
A|0-----------------------0---0-----------------------------------| 
E|----------------------------------------------------------------| 

1:31 

G|----------------------------------------------------------------| 
D|----------------------------------------------------------------| 
A|0-----------0-------------------0-----------0-------3-------4---| 
E|--------------------1-------1-----------------------------------| 

G|----------------------------------------------------------------| 
D|----------------------------------------------------------------| 
A|5-----------5-------3-------4---5-----------5-------2-------5---| 
E|----------------------------------------------------------------| 

G|----------------------------------------------------------------| 
D|2-----------2---------------2-------------------------------2---| 
A|--------------------2-----------5-----------5-------3-----------| 
E|----------------------------------------------------------------| 

G|------------2---------------------------------------------------| 
D|------------------------------------2---2---2---2---2---2---2---| 
A|0-----------------------0---0-----------------------------------| 
E|----------------------------------------------------------------| 

G|----------------------------------------------------------------| 
D|----------------------------3-----------3---2-----------2-------| 
A|3-------3---5-------0---------------3---------------2-------0---| 
E|----3-----------------------------------------------------------| 

G|------------------------------------7---------------------------| 
D|--------------------------------------------5-------------------| 
A|----------------------------------------------------3---0---3---| 
E|----------------------------------------------------------------| 

1:51 

G|--------------------------------------------5-------2-----------|. 
D|2---------------------------2---------------------------5---2---|. 
A|------------2-----------2-------3-------------------------------|. 
E|--------------------3-------------------------------------------|. 
                                                                   . x2 
G|----------------------------------------------------------------|. 
D|3---------------------------3---3---------------------------3---|. 
A|------------3-------0---3-------------------3-------0---3-------|. 
E|----------------------------------------------------------------|. 

2:05 

G|----------------------------------------------------------------| 
D|5-----------------------5---4---3---------------------------3---| x3 
A|------------5-------------------------------3-------------------| 
E|----------------------------------------------------------------| 

G|2---------------------------------------------------------------| 
D|------------2-----------------------2---2---2---2---2---2---2---| 
A|--------------------3-------0-----------------------------------| 
E|----------------------------------------------------------------| 

2:19 

G|----------------------------------------------------------------| 
D|----------------------------3-----------3---2-----------2-------| 
A|3-------3---5-------0---5-----------3---------------2-------3---| 
E|----3-----------------------------------------------------------| 

G|----------------------------------------------------------------| 
D|----------------------------3-----------3---2-----------2-------| 
A|--------3---5-------0---5-----------3---------------2-------3---| 
E|----3-----------------------------------------------------------| 

G|----------------------------------------------------------------| 
D|----------------------------3-----------3---2-----------2---3---| 
A|--------3---5-------0---5-----------3---------------2-----------| 
E|----3-----------------------------------------------------------| 

G|--------------------------------------------------------------------| 
D|------------3-----------3-----------3-------3---3---3---3---3-------| 
A|----------------------------------------------------------------0---| 
E|--------------------------------------------------------------------| 
		  

See also:

bass Deep Purple - Speed King bass Deep Purple - Into The Fire bass Deep Purple - Smoke On The Water bass Deep Purple - Fire Ball bass Deep Purple - Smoke On The Water (ver. 2) bass Deep Purple - Space Truckin'
e-chords

Other versions:

bass Mark Eric - Move With The Dawn
auto scroll beats size up size down change color hide chords drawings
tab show chords e-chords YouTube Clip e-chords hide all tabs e-chords go to top tab

share