Makeout Videotape

Only You

Makeout Videotape

bass

by  UBIRBOMFIM

save to print version add songbook text version e-mail correct tuner
chordsukulelecavacokeyboardtabbassdrumsharmonicaflute Guitar Pro
close

there isn't a video lesson for this song

chords

Only You

	  		
Verse 
G|--------------------------------------------------------------------------| 
D|-5/-----------6---4-----------6---4---------------------------------------| 
A|----0-00-00-0---7---0-00-00-0---7---0-00----------------------------------| 
E|--------------------------------------------------------------------------| 

G|--------------------------------------------------------------------------| 
D|--------------------------------------------------------------------------| 
A|-0--4---2--4--0-00-00-----------------------------------------------------| 
E|------4-------------------------------------------------------------------| 

G|--------------------------------------------------------------------------| 
D|-0-6---4-----------6---4-----------6---4----------------------------------| 
A|-----7----0-00-00-0--7---0-00-00-0---7---0-00-----------------------------| 
E|--------------------------------------------------------------------------| 

G|--------------------------------------------------------------------------| 
D|--------------------------------------------------------------------------| 
A|-0--4---2--4--0-00-0--4---6--7--0-00-00-00--------------------------------| 
E|------4-----------------4-------------------------------------------------| 



Chorus 

G|--------------------------------------------------------------------------| 
D|-------4444-66------------------------------------------------------------| 
A|-000-4---------44----44--000000000000------4--6---------------------------| 
E|-----------------66-------------------2--4--------------------------------| 

G|--------------------------------------------------------------------------| 
D|-------4444-66------------------------------------------------------------| 
A|-000-7---------44----44--000000000000------4--6---------------------------| 
E|------------------66------------------2--4--------------------------------| 

G|--------------------------------------------------------------------------| 
D|-------4444-66------------------------------------------------------------| 
A|-000-4---------44----44--000000000000------4--6---------------------------| 
E|-----------------66-------------------2--4--------------------------------| 

G|--------------------------------------------------------------------------| 
D|-------4444-66-------------------------6---4------------------------------| 
A|-000-4---------44----44--000000000000----7---0----------------------------| 
E|-----------------66-------------------------------------------------------| 

Verse 

G|--------------------------------------------------------------------------| 
D|-----------6---4-----------6---4---------------------------------------| 
A|---00-00-0---7---0-00-00-0---7---0-00----------------------------------| 
E|--------------------------------------------------------------------------| 

G|--------------------------------------------------------------------------| 
D|--------------------------------------------------------------------------| 
A|-0--4---2--4--0-00-00-----------------------------------------------------| 
E|------4-------------------------------------------------------------------| 

G|--------------------------------------------------------------------------| 
D|-0-6---4-----------6---4-----------6---4----------------------------------| 
A|-----7----0-00-00-0--7---0-00-00-0---7---0-00-----------------------------| 
E|--------------------------------------------------------------------------| 

G|--------------------------------------------------------------------------| 
D|--------------------------------------------------------------------------| 
A|-0--4---2--4--0-00-0--4---6--7--0-00-00-00--------------------------------| 
E|------4-----------------4-------------------------------------------------| 


Chorus 

G|--------------------------------------------------------------------------| 
D|-------4444-66------------------------------------------------------------| 
A|-000-4---------44----44--000000000000------4--6---------------------------| 
E|-----------------66-------------------2--4--------------------------------| 

G|--------------------------------------------------------------------------| 
D|-------4444-66------------------------------------------------------------| 
A|-000-7---------44----44--000000000000------4--6---------------------------| 
E|------------------66------------------2--4--------------------------------| 

G|--------------------------------------------------------------------------| 
D|-------4444-66------------------------------------------------------------| 
A|-000-4---------44----44--000000000000------4--6---------------------------| 
E|-----------------66-------------------2--4--------------------------------| 

G|--------------------------------------------------------------------------| 
D|-------4444-66------------------------------------------------------------| 
A|-000-4---------44----44--000000000000------4--6---------------------------| 
E|-----------------66-------------------2--4--------------------------------| 


Outro 
G|---------------------------------------------------------------------------| 
D|---------------------------------------------------------------------------| 
A|--------------------4--6--000000000000------4--6---------------------------| 
E|-777777777777--2--4--------------------2--4--------------------------------| 

G|---------------------------------------------------------------------------| 
D|---------------------------------------------------------------------------| 
A|-222222222222-------4--6--000000000000------4--6---------------------------| 
E|---------------2--4--------------------2--4--------------------------------| 

G|---------------------------------------------------------------------------| 
D|---------------------------------------------------------------------------| 
A|-222222222222-------4--6--000000000000------4--6---------------------------| 
E|---------------2--4--------------------2--4--------------------------------| 

G|---------------------------------------------------------------------------| 
D|---------------6---4~------------------------------------------------------| 
A|-----------------7---------------------------------------------------------| 
E|-777777777777--------------------------------------------------------------| 



************************************ 

| /  Slide up 
| ~  Vibrato 

************************************ 
		  

See also:

bass Deep Purple - Smoke On The Water (ver. 3) bass Deep Purple - Black Night bass Deep Purple - Smoke On The Water (ver. 2) bass Deep Purple - Knocking At Your Back Door bass Deep Purple - Burn bass Deep Purple - Ted The Mechanic
e-chords

Other versions:

bass 112 - Only You bass Makeout Videotape - Only You bass UFO - Only You Can Rock Me
auto scroll beats size up size down change color hide chords drawings
tab show chords e-chords YouTube Clip e-chords hide all tabs e-chords go to top tab

share