Los Askis

Poco A Poco

Los Askis

bass

by  TARIKIKE

save to print version add songbook text version e-mail correct tuner
chordsukulelecavacokeyboardtabbassdrumsharmonicaflute Guitar Pro
close

there isn't a video lesson for this song

chords

Poco A Poco

	  		Pues aqui esta el bajeo completo de esta canción 

  (B1) 
   C     E     Am    F     C     E     Am             
3|-----0-----------------------0---------|-- 
4|---2-------------2-----3---2-----------|-- 
5|-3---------2-0-3-----3---3---------2-0-|-- 
6|-------0-4---------1-----------0-4-----|-- 
   E     Am    E     Am                    
3|-------------------------------|-- 
4|-----------2-----------2-----2-|-- 
5|-----2-0-3-------2-0-3---0-3---|-- 
6|-0-4---------0-4---------------|-- 

  (B2) 
   C       G C        G C        D  C            Am               
3|-----0---------0----------0-----------O-----0------2----2-| 
4|---2---------2----------2------0----2-----2----0-3---0-3--| 
5|-3-----3---3------3---3------3----3-----3-----------------| 
6|---------3----------3-------------------------------------| 

  (B3) 
   F     C     E     Am    F     C     E     Am                   
3|-----------0-----------------------0---------|-- 
4|-----3---2-------------2-----3---2-----------|-- 
5|---3---3---------2-0-3-----3---3---------2-0-|-- 
6|-1-----------0-4---------1-----------0-4-----|-- 
    E     Am    E     Am                       
3|--------------------------------|-------- 
4|------------2-----------2-----2-|-------- 
5|------2-0-3-------2-0-3---0-3---|-------- 
6|--0-4---------0-4---------------|-------- 

  (B4) 

   C       G C        G C        D  C            Am               
3|-----0---------0----------0-----------O-----0------| 
4|---2---------2----------2------0----2-----2----0---| 
5|-3-----3---3------3---3------3----3-----3----------| 
6|---------3----------3------------------------------| 

  (B5) 

   C     E     Am    F     C     E     Am             
3|-----0-----------------------0---------|-- 
4|---2-------------2-----3---2-----------|-- 
5|-3---------2-0-3-----3---3---------2-0-|-- 
6|-------0-4---------1-----------0-4-----|-- 
   E     Am    E     Am    E     Am           
3|--------------------------------------|-- 
4|-----------2-----------2-----------2--|-- 
5|-----2-0-3-------2-0-3-------2-0-3----|-- 
6|-0-4---------0-4---------0-4----------|-- 

   E     Am    E      Am                    
3|-------------------------|-- 
4|-----------2-------------|-- 
5|-----2-0-3-------2--0----|-- 
6|-0-4---------0-4---------|-- 


este es el orden de los bajeos: 

B1 | 
B2 ||- INTRO 
B3 | 

B2 |-CANTADO 
B3 |- 

B2 |-ZAMPOÑA Y KENA 
B3 |- 

B2 |- CANTADO 
B3 |- 

B4 |-EL PARRAFO DE POCO APOCO SECANTE TODO 
   |-DICIANDO (LA-LA-LA). 

B5 |-AQUI SE EMPIEZA EN (NUNCA DIGAS QUE NO) 

Este es el bajo original de esta canción, si lo 
marcan bien seguro que sale. 
  
Despues les mando otras canciones  
de este fabuloso grupo.
		  

See also:

bass Misc Soundtrack - La Cucaracha bass Misc Soundtrack - Hedwig And The Angry Inch - Angry Inch bass Misc Soundtrack - James Bond Main Theme bass Misc Soundtrack - Milano Violenta - Dreamland bass Misc Soundtrack - The Lighting Theif - Put You In Your Place bass Maná - Vivir sin aire
e-chords

Other versions:

bass Los Askis - Poco A Poco
auto scroll beats size up size down change color hide chords drawings
tab show chords e-chords YouTube Clip e-chords hide all tabs e-chords go to top tab

share