Live

Waterboy

Live

bass

by  TAMAMOREIRA

save to print version add songbook text version e-mail correct tuner
chordsukulelecavacokeyboardtabbassdrumsharmonicaflute Guitar Pro
close

there isn't a video lesson for this song

chords

Waterboy

	  		
Verse 
Gb|-6-6----6-6---------------| 
Db|--------------------------| 
Ab|--------------------------| 
Eb|----------------5-5---5h7-| 
    P P    P P     T T   T 

Pre-Chorus 
Gb|---------------------------------| 
Db|---------------------------------| 
Ab|-4-4---4-4--4-6---------7-7--6-4-| 
Eb|-----------------5-5--5----------| 
                    T T  T T T  T T 

Gb|------------------------------| 
Db|------------------------------| 
Ab|-4-4---4-4--4-6-------------7-| 
Eb|----------------5-5---5-5-----| 

Gb|---------------------------------| 
Db|---------------------------------| 
Ab|-4-4---4-4--4-6---------7-7--6-4-| 
Eb|-----------------5-5--5----------| 
                    T T  T T T  T T 

Gb|-----------------------------| 
Db|-----------------------------| 
Ab|-4-4---4-4--4-6--------------| 
Eb|----------------5-5--5-0---2-| 
                                        x3 
Gb|--------------------------------------||--------------------------------------| 
Db|----4---------4--------6---------6---*||----7---------7-----------------------| 
Ab|-------------------------------------*||--------------------------------------| 
Eb|-2----2--2-2----2---4----4--4-4----4--||-5----5--5-5----5---5----------5/175-| 
    T  P T  T T  P T   T  P T  T T  P T     T  P T  T T  P T 
T          T 

Chorus 
                                  x3 
Gb|----6-----------------2---4---6-||-------------------------| 
Db|-------------------------------*||----7-----7-----9------9-| 
Ab|-4----4--2-4-2------0---2---4--*||-------------------------| 
Eb|----------------2---------------||-5----5-5----7-----7-7---| 
    T  P T  T T T  T   T P T P T P    T  P T T P  T  P  T T P 

Bridge 
                                x2 
Gb|----6-------------------------||----6----------------------|----6-------------------| 
Db|----------------7------7---9-*||---------------7----9---11-|------------------------| 
Ab|-4----4----------------------*||-4----4--------------------|-4----4-----------------| 
Eb|-------------5----5--5---7----||------------5-----7---9----|---------------------9-| 
    T  P T      T  P T  T P T P     T  P T     T  P  T P T P    T  P 
T              T 

End 
Gb|---------| 
Db|---------| 
Ab|-4-4-4-4-| 
Eb|---------| 



************************************ 

| b  Bend 
| h  Hammer-on 
| P  Pop 
| x  Dead note 
| *  Natural harmonic 
| /  Slide up 

************************************ 
		  

See also:

bass Guns N' Roses - Bad Apples bass 4 Non Blondes - waths up bass Guns N' Roses - Duff Solo Tokyo bass R.E.M. - Losing my religion bass 4 Non Blondes - What`s up (ver. 1) bass Foo Fighters - All My Life
e-chords

Other versions:

bass Live - Waterboy
auto scroll beats size up size down change color hide chords drawings
tab show chords e-chords YouTube Clip e-chords hide all tabs e-chords go to top tab

share