Limp Bizkit

home > Limp Bizkit

Break Stuff Bass Tab

Limp Bizkit

Difficulty: nolevelnolevel

by Teusalves

tuner correct add songbook print version text version save to e-mail
chordsukulelecavacokeyboardtabbassdrummharmonicsflute Guitar Pro
chords

Break Stuff

  		Guitar intro for 4 bars then  
  
Verse  
(0:04)  
 G|----------------  
 D|----------------  
 A|---------0------  
C#|-2-------------- (x8)  
  
Chorus (x2)  
(0:22)                             (0:29)  
 G|--------------------           G|----------------  
 D|--------------------           D|----------------  
 A|--------------------           A|---------0------  
C#|-2----2b3r2--2--x-x- (x3)     C#|-2-------------- (x1)  
  
  
Verse (x8) again (0:39)  
  
Chorus (x2) again (0:57)  
  
Interlude  
(1:15)               (1:57)  
 G|-------           G|----------  
 D|-------           D|----------  
 A|-0-----           A|-0--------  
C#|-----2- (x57)    C#|---------- (x1)  
  
(2:00)  
 G|---------------------------------------------  
 D|---------------------------------------------  
 A|-0---------------0---------------0-----------  
C#|----2---2--0--2-----2---2--0--2-----2------2- (x11)  
  
(2:25)  
 G|----------------  
 D|----------------  
 A|---------0------  
C#|-2-------------- (x1)  
  
Back to Chorus (x2) to finish! 
	  

Search Paypal
auto scroll beats size up size down change color hide chords drawings
tab show chords e-chords YouTube Clip e-chords hide all tabs e-chords go to top tab