Limp Bizkit

home > Limp Bizkit

Boiler Bass Tab

Limp Bizkit

Difficulty: nolevelnolevel

by Teusalves

tuner correct add songbook print version text version save to e-mail
chordsukulelecavacokeyboardtabbassdrummharmonicsflute Guitar Pro
chords

Boiler

  		Verse:  
G |--------------------------------------------------  
D |--------------------------------------------------  
A |-----------------4h5-3-4-----------------4h5-6-4--  
E |--0-4-0-4-0-4-5-----------0-4-0-4-0-4-3-----------  
  
  
Chorus:  
G |------------8----------------------11-10-9------  
D |--------8-9---12---12-12-12---10-11-------------  
A |--7---9--------------------------------------9--  
E |------------------------------------------------  
  
G |----------------------9------------------  
D |----8---8-8-8---7-9\8--------------------  
A |--8---------------------9-7--------------  
E |-----------------------------------------  
  
Vers       (x2)  
Chorus   (x2)  
Vers       (x2)  
  
  
Interlude  
G |---------------------------------------  
D |---------------------------------------  
A |---------------------------------------  
E |--00-5--00-4--00-3--00-5--00-4--00-3---  (x10)  
  
Vers      (x8)  
Chorus  (x1) 
	  

Search Paypal
auto scroll beats size up size down change color hide chords drawings
tab show chords e-chords YouTube Clip e-chords hide all tabs e-chords go to top tab