Leela

Te Procuro

Leela

bass

by  JOSEVTZ

save to print version add songbook text version e-mail correct tuner
chordsukulelecavacokeyboardtabbassdrumsharmonicaflute Guitar Pro
close

there isn't a video lesson for this song

chords

Te Procuro

(Bianca Jhordão/ Rodrigo Brandão)

	  		introdução: "Finjo ser invisível pra..." 
 
G------------------------------- 
D------------------------------- 
A-5555-------------------------- 
E------7777-5555-33333-66666---- 
 
verso: na parte q ela canta: "Tropeço na escada pra você me pegar..." 
 
G------------------------ 
D------------------------ 
A-5555------------------- 
E------5555-7777-333333-- 
 
Refrão: 
 
G--------------------------- 
D--------------------------- 2x 
A-55-------22--------------- 
E------55-----33/2/3/2/3/2-- 
 
depois do Refrão: 
 
G------------------------------- 
D------------------------------- 
A-5555--------------------------  4x 
E------7777-5555-33333-66666---- 
 
 
G------------------------ 
D------------------------ 2x 
A-5555------------------- 
E------5555-7777-333333-- 
 
repete Refrão 
 
 
no solinho depois do Refrão faça: 
 
G------------------------------------ 
D------------------------------------ 
A----5---0~5---0~5--------------5---- 
E-------------------5-3-5------------ 
 
depois: 
 
G----------------------------------- 
D----------------------------------- 
A-5555------------------------------ 
E------0000-2222-3333/2/3/2/3/2----- 
 
repete Refrão!!!!!!!!   
 
 

		  

See also:

bass Jota Quest - Na Moral bass Legião Urbana - Angra Dos Reis bass Legião Urbana - Quando o sol bater na janela do teu quarto (tab p/ baixo) bass Paralamas do Sucesso - Aonde Quer Que Eu Vá bass Skank - Te Ver (ver. 2) bass Engenheiros do Hawaii - Eu Que Não Amo Você
e-chords

Other versions:

bass Leela - Te Procuro
auto scroll beats size up size down change color hide chords drawings
tab show chords e-chords YouTube Clip e-chords hide all tabs e-chords go to top tab

share