Led Zeppelin

home > Led Zeppelin

Walters Walk Bass Tab

Led Zeppelin

Difficulty: nolevelnolevel

tuner correct add songbook print version text version save to e-mail
chordsukulelecavacokeyboardtabbassdrumsharmonicsflute Guitar Pro
chords

Walters Walk

Year: 1982 - Album: Coda

  		 
G|----------------|----------------|----------------|----------------| 
D|----------------|----------------|----------------|----------------| 
A|----------------|----------------|----------------|--------------7-| 
E|----------------|----------------|----------------|----------------| 
 
G|----------------|----------------|----------------|----------------| 
D|----------------|----------------|----------------|----------------| 
A|--7---7-7-7-----|------------7---|------------7---|--7-7-7-7-7-7-7-| 
E|--------------0-|--------0-0---0-|--------0-0---0-|----------------| 
 
G|----------------|----------------|----------------|----------------| 
D|----------------|----------0-----|----------0-----|----------0-----| 
A|--7---7-7-7-----|----0-1-2-------|----0-1-2-------|----0-1-2-----0-| 
E|--------------3-|--------------3-|--3-----------3-|--3-------------| 
 
G|----------------|----------------|----------------|----------------| 
D|----------------|----------0-----|----------0-----|----------0-----| 
A|--0-------------|----0-1-2-------|----0-1-2-------|----0-1-2-----0-| 
E|------0-3-0---3-|--3-----------3-|--------------3-|----------------| 
 
G|----------------|----------------|----------------|----------------| 
D|----------------|----------0-----|----------0-----|----------0-----| 
A|--0-------------|----0-1-2-------|----0-1-2-------|----0-1-2-----0-| 
E|------0-3-0---3-|--3-----------3-|--------------3-|----------------| 
 
G|----------------|----------------|----------------|----------------| 
D|----------------|----------0-----|----------0-----|----------0-----| 
A|--0-------------|----0-1-2-------|----0-1-2-------|----0-1-2-----0-| 
E|------0-3-0---3-|--3-----------3-|--------------3-|----------------| 
 
G|----------------|| 
D|----------------|| 
A|--0-----------3-|| 
E|------0-3-0-0---|| 
 
G|----------------|----------------|----------------|----------------| 
D|--2-4---------2-|4-5-------2-4-5-|------2-4-2-----|------2-4-------| 
A|4-----0---3-4---|------3-4-------|--3-4-------3-4-|0-3-4-----0---3-| 
E|----------------|----------------|----------------|----------------| 
 
                                    2/4 time 
G|----------------|----------------|--------|| 
D|--2-4-5-------2-|4-5-------2-4-2-|--------|| 
A|4---------3-4---|------3-4-------|3-4-5---|| 
E|----------------|----------------|------3-|| 
 
  4/4 time 
G|----------------|----------------|----------------|----------------| 
D|----------0-----|----------0-----|----------0-----|----------------|Repeat 
A|----0-1-2-------|----0-1-2-------|----0-1-2-----0-|--0-------------| twice 
E|--3-----------3-|--3-----------3-|--3-------------|------0-3-0-2-3-| 
 
G|----------------|----------------|----------------|----------------|| 
D|----------0-----|----------0-----|----------0-----|----------------|| 
A|----0-1-2-------|----0-1-2-------|----0-1-2-----0-|--0-------------|| 
E|--3-----------3-|--3-----------3-|--3-------------|------0-0-0-3-0-|| 
 
G|----------------|----------------|----------------|----------------| 
D|----------------|----------------|----------------|----------------| 
A|----------------|----------------|7-7-7-7-7-7-7-7-|--7---7-7-7-7-7-| 
E|0---------------|(0)-------------|----------------|----------------| 
 
G|----------------|----------------|----------------|----------------|| 
D|----------------|----------------|----------------|----------------|| 
A|7-7-7-7-7-7-7-7-|7-7-7-7-7-7-7---|7-7-7-7-7-7-7-7-|--7---7-7-7-----|| 
E|----------------|--------------0-|----------------|--------------3-|| 
 
G|----------------|----------------|----------------|----------------| 
D|----------0-----|----------0-----|----------0-----|----------------|Repeat 
A|----0-1-2-------|----0-1-2-------|----0-1-2-----0-|--0-------------| twice 
E|--3-----------3-|--3-----------3-|--3-------------|------0-3-0-2-3-| 
 
G|----------------|----------------|----------------|----------------|| 
D|----------0-----|----------0-----|----------0-----|----------------|| 
A|----0-1-2-------|----0-1-2-------|----0-1-2-----0-|--0-------------|| 
E|--3-----------3-|--3-----------3-|--3-------------|------0-0-0-3-0-|| 
 
G|----------------|----------------|----------------|----------------| 
D|--2-4---------2-|4-5-------2-4-5-|------2-4-2-----|------2-4-------| 
A|4-----0---3-4---|------3-4-------|--3-4-------3-4-|0-3-4-----0---3-| 
E|----------------|----------------|----------------|----------------| 
 
                                    2/4 time 
G|----------------|----------------|--------|| 
D|--2-4-5-------2-|4-5-------2-4-2-|--------|| 
A|4---------3-4---|------3-4-------|3-4-5---|| 
E|----------------|----------------|------3-|| 
 
  4/4 time 
G|----------------|----------------|----------------|----------------| 
D|----------0-----|----------0-----|----------0-----|----------------|Repeat 
A|----0-1-2-------|----0-1-2-------|----0-1-2-----0-|--0-------------| twice 
E|--3-----------3-|--3-----------3-|--3-------------|------0-3-0-2-3-| 
 
G|----------------|----------------|----------------|----------------|| 
D|----------0-----|----------0-----|----------0-----|----------------|| 
A|----0-1-2-------|----0-1-2-------|----0-1-2-----0-|--0---0---------|| 
E|--3-----------3-|--3-----------3-|--3-------------|--------0-003-0-|| 
 
G|----------------|----------------|----------------|----------------| 
D|----------------|----------------|----------------|----------------| 
A|7-7-7-7-7-7-7-7-|7-7-7-7-7-7-7---|7-7-7-7-7-7-7-7-|--7---7-5-7-----| 
E|----------------|--------------0-|----------------|--------------0-| 
 
G|----------------|----------------|----------------|----------------| 
D|----------------|----------------|----------------|----------------| 
A|--7-7-7-7-7-7-7-|7-7-7-7---7-7-7-|7-7-7-7-7-7-7-7-|--7---7-7-7---7-| 
E|----------------|--------0-------|----------------|----------------| 
 
G|----------------|----------------|----------------|----------------| 
D|----------------|----------------|----------------|----------------| 
A|--7-7-7-7-7-7-7-|7-7-7-7-7-7-7-7-|7-7-7-7-7-7-7-7-|7-7-7-7-7-7-7-7-| 
E|----------------|----------------|----------------|----------------| 
 
G|----------------|----------------|----------------|----------------| 
D|----------------|----------------|----------------|----------------| 
A|--7-7-7-7-7-7-7-|7-7-7-7-7-7-7-7-|7-7-7-7-7-7-7-7-|--7---7-7-7-----| 
E|----------------|----------------|----------------|--------------3-| 
 
  Guitar Solo 
G|----------------|----------------|----------------|----------------| 
D|----------0-----|----------0-----|----------0-----|----------------|Repeat 
A|----0-1-2-------|----0-1-2-------|----0-1-2-----0-|--0-------------| twice 
E|--3-----------3-|--3-----------3-|--3-------------|------0-3-0-2-3-| 
 
G|----------------|----------------|----------------|----------------|| 
D|----------0-----|----------0-----|----------0-----|----------------|| 
A|----0-1-2-------|----0-1-2-------|----0-1-2-----0-|--0-----------3-|| 
E|--3-----------3-|--3-----------3-|--3-------------|------0-3-0-0---|| 
 
G|----------------|----------------|----------------|----------------| 
D|--2-4---------2-|4-5-------2-4-5-|------2-4-2-----|------2-4-------| 
A|4-----0---3-4---|------3-4-------|--3-4-------3-4-|0-3-4-----0---3-| 
E|----------------|----------------|----------------|----------------| 
 
                                    2/4 time 
G|----------------|----------------|--------|| 
D|--2-4-5-------2-|4-5-------2-4-2-|--------|| 
A|4---------3-4---|------3-4-------|3-4-5---|| 
E|----------------|----------------|------3-|| 
 
  4/4 time 
G|----------------|----------------|----------------|----------------| 
D|----------0-----|----------0-----|----------0-----|----------------|Repeat 
A|----0-1-2-------|----0-1-2-------|----0-1-2-----0-|--0-------------| twice 
E|--3-----------3-|--3-----------3-|--3-------------|------0-3-0-2-3-| 
 
G|----------------|----------------|----------------|----------------|| 
D|----------0-----|----------0-----|----------0-----|----------------|| 
A|----0-1-2-------|----0-1-2-------|----0-1-2-----0-|--0-------------|| 
E|--3-----------3-|--3-----------3-|--3-------------|------0-3-0-----|| 
 
G|----------------|----------------|----------------|----------------| 
D|----------------|----------------|----------------|----------------| 
A|----------------|----------------|--------------7-|--7---7-7-7-----| 
E|----------------|----------------|----------------|----------------| 
 
G|----------------|----------------|----------------|----------------| 
D|----------------|----------------|----------------|----------------| 
A|----------------|----------------|--------------7-|--7---7-7-7-7-7-| 
E|----------------|----------------|----------------|----------------| 
 
G|----------------|----------------|----------------|----------------| 
D|----------------|----------------|----------------|----------------| 
A|5-7-------------|5-7-------------|5-7-7---5-7-7-7-|--7---7-7-7-7-7-| 
E|----0-0-0-0-0-0-|----0-0-0-0-0-0-|----------------|----------------| 
 
G|----------------|----------------|----------------|----------------| 
D|----------------|----------------|----------------|----------------| 
A|----7-7-7-7-7-7-|----7-7-7-7-7-7-|----7-7-7-7-7-7-|7-7-7-7-7-7-7-7-| 
E|0-0-------------|0-0-------------|0-0-------------|----------------| 
 
G|----------------|----------------|----------------|----------------| 
D|----------------|----------------|----------------|----------------| 
A|7-7-7-7-7-7-7---|----7-7-7-7-7---|7-7-7-7-7-7-7---|----7-7-7-7-5-7-| 
E|--------------0-|--0-----------0-|--------------0-|--0-------------| 
 
G|----------------|----------------|----------------|----------------| 
D|----------------|----------------|----------------|----------------| 
A|7-7-7-7-5-7---7-|--7-7-7-7-7-7-7-|7-7-7-7-------7-|7-7-7---5-7-7---| 
E|----------------|----------------|--------0-0-0---|--------------0-| 
 
G|----------------|----------------|----------------|----------------| 
D|----------------|----------------|----------------|----------------| 
A|7---7---7-7-7---|--------7-7-7-7-|7-7-7-7-7-7-7-7-|--7-7-7-7-7-7-7-| 
E|--------------0-|--0---0---------|----------------|----------------| 
 
G|----------------|----------------|----------------|----------------| 
D|----------------|----------------|----------------|----------------| 
A|7-7-7-7-7-7-7---|----7-7-7-7-7-7-|7-7-7-7-7-7-7-7-|7-7-------------| 
E|--------------0-|--0-------------|----------------|----5-5-3-5-3---| 
 
G|----------------|----------------|----------------|----------------| 
D|----------------|----------------|----------------|----------------| 
A|----7-7-7-7-7---|----7-7-7-7-7-7-|7-7-7-7-7-7-7---|----7-7-7-7-4-4-| 
E|0-0-----------0-|--0-------------|--------------0-|--0-------------| 
 
G|----------------|----------------|----------------|----------------| 
D|----------------|----------------|----------------|----------------| 
A|------------7-7-|7-7-7-7-7-7-7-7-|7-7-----7-----4-|4-2-2-4-4-4-2-2-| 
E|0-0-0-0-0-0-----|----------------|----0-----0-----|----------------| 
 
G|----------------|----------------|----------------|----------------| 
D|----------------|----------------|----------------|----------------| 
A|----7-7-7-7-7-7-|7-7-7-7-7-7-7-7-|7-7-7-7-7-7-7-7-|7-7-7-7-7-7-7-7-| 
E|0-0-------------|----------------|----------------|----------------| 
 
G|----------------|----------------|----------------|----------------| 
D|----------------|----------------|----------------|----------------| 
A|7-7-7-7-7-7-7-7-|7-7-7-7-7-7-7-7-|7-7-7-7-7-7-7-7-|7-7-7-7-7-7-7-7-| 
E|----------------|----------------|----------------|----------------| 
 
G|----------------| 
D|----------------| 
A|7-7-7-7-7-7-7-7-| 
E|----------------| 
	  

Search Paypal
auto scroll beats size up size down change color hide chords drawings
tab show chords e-chords YouTube Clip e-chords hide all tabs e-chords go to top tab