Led Zeppelin

home > Led Zeppelin

Ten years gone Bass Tab

Led Zeppelin

Difficulty: nolevelnolevel

tuner correct add songbook print version text version save to e-mail
chordsukulelecavacokeyboardtabbassdrummharmonicsflute Guitar Pro
chords

Ten years gone

Year: 1975 - Album: Physical Graffiti

  		(intro)(slow part)repeat X4 
G------------------| 
D------------------| 
A----------------0-| 
E--5-5-3-1---------| 
 
(pre-chorus) 
G-----------------------------|------------| 
D-----------------------------|-------03-2-| 
A-----7h9-9--7-77--5-55--3----|----03------| 
E--5--------------------------|-03---------| 
 
(chorus)repeat X4 
G---------|---------|--------|-----------| 
D-----2---|-3-3-33--|--------|-------2---| 
A-0--0--0-|-------0-|-0--000-|---0-4---0-| 
E---------|---------|--------|-----------| 
 
back to slow part, pre-chorus, chorus 
 
(guitar solo) (2:31) 
G-------------|--------------------------|-------| 
D-------------|-5---5--5555--------------|-------| 
A--5--5--5555-|---5---------5-7-7------7-|---5-5-| 
E-------------|----------------------7---|-3-----| 
 
(2:44)                        (2:51) 
G--------------|------------|-----------------| 
D----------4-5-|--------5---|---5-------------| 
A-5-5-55-7-----|-5-5--5---5-|-5---5-7777-7777-| 
E--------------|------------|-----------------| 
 
              (2:55) 
G-----------|--------------|-------|------------|------------| 
D-----------|--------------|-----5-|------------|------------| 
A---7-5-5-5-|--5-5-5-----5-|---5---|---5-777777-|----7-5-5-5-| 
E-7---------|--------5-7---|-3-----|-7----------|--7---------| 
 
 (3:08) 
G--------------|------------|----------------|-----------| 
D----------4-5-|--------5---|---5------------|-----------| 
A-5-5-55-7-----|-5-5--5---5-|-5---5-7777-7777|---7-5-5-5-| 
E--------------|------------|----------------|-7---------| 
 
(3:20) repeat X3                4th time 
G--------4---------------------|--------4---------------| 
D-5/7-77---7-5555-5555---------|-5/7-77---7-5555-5555-7-| 
A----------------------5-5-5-5-|------------------------| 
E------------------------------|------------------------| 
 
   (3:42) 
G----------------|-------7-|---------7-77--------| 
D-7-7--7---------|-----7---|-5-5-5-5------5------| 
A--------7-5-7-5-|-5-5-----|----------------5--3-| 
E----------------|---------|---------------------| 
 
   (3:52)                   (4:04) 
G---------------|---------|------------------| 
D---------------|-------7-|--------7/9\7-----| 
A-3-3---3-3--3--|-----7---|-5--5-5-------5-5-| 
E--------------3|-5-5-----|------------------| 
 
G---------------------| 
D---------------------| 
A-5--5--5-5-----5-----| 
E-----------5-5---5-3-| 
 
back to pre-chorus, chorus, slow, and pre-chorus til end. 
	  

Search Paypal
auto scroll beats size up size down change color hide chords drawings
tab show chords e-chords YouTube Clip e-chords hide all tabs e-chords go to top tab