Led Zeppelin

home > Led Zeppelin

Tangerine Bass Tab

Led Zeppelin

Difficulty: nolevelnolevel

tuner correct add songbook print version text version save to e-mail
chordsukulelecavacokeyboardtabbassdrummharmonicsflute Guitar Pro
chords

Tangerine

Year: 1970 - Album: Led Zeppelin III

  		Tabbed By : Bassdrum 
e-mail: [email protected] 
 
Tuning: EADG  
 
 
Well, I was looking on here and I couldn't find the tab for it, so here it is for all to enjoy.  
 
G|--------------------------------|--------------------------------| 
D|--------------------------------|------------------------0-------| 
A|--------------------------------|--------------------------------| 
E|--------------------------------|--------------------------------| 
 
   
G|0---------------0---0---0-------|--------------------------------| 
D|----------------------------0---|------------------------0-------| 
A|--------------------------------|3---------------3---------------| 
E|--------------------------------|----------------8---------------| 
 
  
G|0-----------7---0---------------|--------------------------------| 
D|--------------------0---0-------|------------------------0-------| 
A|----------------------------3---|3---------------3---------------| 
E|--------------------------------|--------------------------------| 
 
G|--------------------------------|--------------------------------| 
D|--------------------0---0-------|------------------------0-------| 
A|----------------------------3---|3---------------3---------------| 
E|-3--------------3---------------|--------------------------------| 
 
   
G|0-------------------0-------0---|--------------------------------| 
D|--------------------------------|----0-----------0---------------| 
A|--------------------------------|------------0---------------0---| 
E|--------------------------------|--------------------------------| 
 
  
G|--------------------------------|--------------------------------| 
D|0-------------------------------|--------------------------------| 
A|--------------------------------|--------------------------------| 
E|--------------------------------|--------------------------------| 
 
  
G|--------------------------------|--------------------------------| 
D|--------------------------------|--------------------------------| 
A|0-------------0-3---3-2-----0---|--------------------------------| 
E|--------------------------------|3-------------------3-------3---| 
 
    
G|--------------------------------|--------------------------------| 
D|0-------0-----------0-----------|--------------------------------| 
A|--------------------------------|--------------------------------| 
E|----------------------------3---|1-------1-----------1---3---1---| 
 
       
G|--------------------------------|--------------------------------| 
D|----------------3---2-0-----2---|--------------------------------| 
A|--------------3-----------------|----2-------------------------0-| 
E|0---0---0---1-------------------|--------0-----0-1-----------3---| 
 
          
G|--------------------------------|--------------------------------| 
D|--------------------------------|----0---0-------0---0---0-------| 
A|3---3---3-----------------------|------------0---------------0---| 
E|------------3---3---3---3---3---|3-------------------------------| 
 
         
G|--------------------------------|0-------0-------0---------------| 
D|0-----------------------0-------|--------------------0---0-------| 
A|----------------3---------------|----------------------------3---| 
E|--------------------------------|--------------------------------| 
 
          
G|--------------------------------|0-------0-------0---------------| 
D|--------------------0---0-------|--------------------0---0-------| 
A|3-----------3---3---------------|----------------------------3---| 
E|--------------------------------|--------------------------------| 
 
         
G|--------------------------------|0-------0-------0---------------| 
D|------------------------0-------|--------------------0---0-------| 
A|3---------------3---------------|----------------------------3---| 
E|--------------------------------|--------------------------------| 
 
        
G|--------------------------------|--------------------------------| 
D|------------------------0-------|--------------------------------| 
A|3---------------3---------------|--------------------------------| 
E|--------------------------------|3-----------3---3---3-------3---| 
 
         
G|--------------------------------|--------------------------------| 
D|----0-------0---0-------0-------|0-------------------------------| 
A|--------------------------3-0---|--------------------------------| 
E|3-------------------------------|--------------------------------| 
 
       
G|--------------------------------|--------------------------------| 
D|0-------0-------0---0-----------|0-------0-----------0-------0---| 
A|--------------------------------|--------------------------------| 
E|--------------------------------|--------------------------------| 
 
          
G|--------------------------------|--------------------------------| 
D|0-------0-----------0-----------|0-------0-----------------------| 
A|--------------------------0-0---|--------------------3-----2-2---| 
E|--------------------------------|--------------------------------| 
 
         
G|--------------------------------|------------------------0-2-----| 
D|0-------0-----------0-----------|0-------0-----------0-----------| 
A|--------------------------------|--------------------------------| 
E|--------------------------------|--------------------------------|
	  

Search Paypal
auto scroll beats size up size down change color hide chords drawings
tab show chords e-chords YouTube Clip e-chords hide all tabs e-chords go to top tab