Led Zeppelin

home > Led Zeppelin

D'yer Maker Bass Tab

Led Zeppelin

Difficulty: BeginnerBeginner

tuner correct add songbook print version text version save to e-mail
chordsukulelecavacokeyboardtabbassdrummharmonicsflute Guitar Pro
chords

D'yer Maker

Year: 1973 - Album: Mothership 2CD/1DVD

	  Intro
G|---------------|----------------|------------|-----------------|
D|--------2-3-5--|----------------|------------|-----------------| 2x
A|--3--3---------|--------3-------|------------|--------------2--|
E|---------------|--5--5----5--3--|--1--1---1--|--3-3--3--3-5----| 

Verse (with variations)
G|---------------|----------------|------------|-----------------|
D|--------2-3-5--|----------------|------------|-----------------| 3x
A|--3--3---------|--------3-------|------------|--------------2--|
E|---------------|--5--5----5--3--|--1--1---1--|--3-3--3--3-5----| 

G|------------|-----------|-----------|---------------|
D|------------|-----------|-----------|---------------|
A|------------|-----------|-----------|------------2--|
E|--5---------|-----------|-----------|--------3-5----|

Repeat Verse

Chorus
G|-------------|-------------|-------------|-------------|
D|-------------|-------------|-------------|-------------| 3x
A|-------------|-------------|-------------|-------------|
E|--5-5---5-5--|--5-5---5-5--|--3-3---3-3--|--3-3---3-3--| 

G|------------|----------|-----------|-------------|
D|------------|----------|-----------|-------------|
A|------------|----------|-----------|----------2--|
E|--1---------|----------|--3--------|------3-5----|

Repeat Verse 2x
Repeat Chorus 

Guitar Solo (with variations)
G|---------------|----------------|------------|-----------------|
D|--------2-3-5--|----------------|------------|-----------------| 3x
A|--3--3---------|--------3-------|------------|--------------2--|
E|---------------|--5--5----5--3--|--1--1---1--|--3-3--3--3-5----| 

G|------------|-----------|-----------|---------------|
D|------------|-----------|-----------|---------------|
A|------------|-----------|-----------|------------2--|
E|--5---------|-----------|-----------|--------3-5----|

End (with variations)
G|---------------|----------------|------------|-----------------|
D|--------2-3-5--|----------------|------------|-----------------| 3x
A|--3--3---------|--------3-------|------------|--------------2--|
E|---------------|--5--5----5--3--|--1--1---1--|--3-3--3--3-5----| 

G|------------|-----------|-----------|---------------|
D|------------|-----------|-----------|---------------|
A|------------|-----------|-----------|------------2--|
E|--5---------|-----------|-----------|--------3-5----|

G|---------------|----------------|------------|-----------------|
D|--------2-3-5--|----------------|------------|-----------------| 3x
A|--3--3---------|--------3-------|------------|--------------2--|
E|---------------|--5--5----5--3--|--1--1---1--|--3-3--3--3-5----| 

G|---------------|----------------|---------|------------------|
D|--------2-3-5--|----------------|---------|------------------| 
A|--3--3---------|--0--0---0-3-0--|---------|---------------2--|
E|---------------|----------------|--1---1--|--3-3--3--3--5----| 

G|---------------|----------------|------------|-----------------|
D|--------2-3-5--|----------------|------------|-----------------| 6x
A|--3--3---------|--------3-------|------------|--------------2--|
E|---------------|--5--5----5--3--|--1--1---1--|--3-3--3--3-5----| 
	  

there isn't a video lesson for this song

request
Search
auto scroll beats size up size down change color hide chords drawings
tab show chords e-chords YouTube Clip e-chords hide all tabs e-chords go to top tab