Led Zeppelin

home > Led Zeppelin

Black Dog Bass Tab

Led Zeppelin

Difficulty: ExpertExpert

tuner correct add songbook print version text version save to e-mail
chordsukulelecavacokeyboardtabbassdrummharmonicsflute Guitar Pro
chords

Black Dog

Year: 1971 - Album: Led Zeppelin IV (aka ZOSO)

  		 VERS¬O 1 
 
   verse riff  
G :-----5-7h95h6h75--5----------------|
D :-567--7---------7--7--7------------|
A :7---7----------------7--5-5--------|
E :-----------------------8-8-55------|
   
   interlude  
G :-------------------------------5-7h95h6h75-5---------|
D :-----5------5------5-------567--7---------7-7-7------|
A :-567--7--57--7-567--7--57-7---7--------------7--5-5--|
E :7---7--78--7--7---7--78--7---------------------8-8-55|
   
   chorus  
G :-----------------------------------|
D :--------------------------------/7-|
A :0----0----0-3-0-0----0----0-3-0----|
E :-2120-2120-------2120-2120---------|
   
   second chorus
G :-----------------------------------|----|
D :-----------------------------------|----|
A :------------3----------/7-/5-------|0---|
E :53-5-2--53-5-5--53-5-2-------------|----|


VERS¬O 2

+--------------5---7h9-5h7h9-----5------------------------------------+
|----5-6-7-------7-----------7-7---7-5-7-7----------------------------|
|--7--------7------------------------------5-7-3-5-3------------------|
+---------------------------------------------------------------------+

+---------------------------------------------------------------------+
|-----------5-------------5-------------5-----------------------------|
|---5-6-7-----7---5-6-7-----7---5-6-7-----7----5-6-7------------------|
+-7-------7-----7-------7-----7-------7------7------------------------+

Oh yeah..  (do it twice)
+---------------------------------------------------------------------+
|---------------------------------------------------------------------|
|-----------------3---------------------------------------------------|
+--5-5---5-5---5----5-------------------------------------------------+

Ah, Ah, Ah.. (solo)
+---------------------------------------------------------------------+
|---------------------------------------------------------------------|
|------------------3-5-----------5-3----------------------------------|
+-5-2-0-5-2--5-2-0-----5-2-0-5-2-----5--------------------------------+
	  

Search Paypal
auto scroll beats size up size down change color hide chords drawings
tab show chords e-chords YouTube Clip e-chords hide all tabs e-chords go to top tab