La renga

home > La renga

Panic Show Bass Tab

La renga

Difficulty: nolevelnolevel

by emergurjao

tuner correct add songbook print version text version save to e-mail
chordsukulelecavacokeyboardtabbassdrumsharmonicsflute Guitar Pro
chords

Panic Show

  		Autor: Gustavo F. Nápoli 


El bajo entra en hola a todos.... 


G-------------------------------------- 
D-------------------------------------- 
A-------------------------------------- 
E--0--00--0--000-----35-555-6-5-3-0---- 


Todos corrieron sin entender... 

(aca marca los "mi" como si fuesen armonicos) 

G-------------------------------------- 
D-------------------------------------- 
A-------------------------------------- 
E--0000-0-0000-0--00--35-555-6-5-3-0--- 


Por favor no huyan de mi... 

(en esta parte del estribillo, hace las clásicas bajadas) 

G---------------------------------------------   (x2) 
D----------------1---------------------------- 
A-------1-2-3-33---3-1------3-4-5-555--------- 
E-0(x4)----------------3(x4)----------6-5-3-0- 


No te escapes, ven a mi.... 

G-------------------------------------- 
D-------------------------------------- 
A-------------------------------------- 
E--0--00--0--000-----35-555-6-5-3-0---- 


Yo soy el rey, rey león... 

(aca marca los armónicos en "mi" junto con la guitarra) 

G-------------------------------------- 
D-------------------------------------- 
A-------------------------------------- 
E--0000-0-0000-0--00--35-555-6-5-3-0--- 



Por favor no huyan de mi... 


G---------------------------------------------   (x2) 
D----------------1---------------------------- 
A-------1-2-3-33---3-1------3-4-5-555--------- 
E-0(x4)----------------3(x4)----------6-5-3-0- (deja sonando mi) 


solo de guitarra: 

G----------------------------------------  (x2) 
D---------------6------------------------ 
A-7-5-7-5-7-5-7---7-6-------------------- 
E---------------------5-55-6-5-3-0-0000-- 



G---------------------------------------------   (x2) 
D----------------1---------------------------- 
A-------1-2-3-33---3-1------3-4-5-555--------- 
E-0--------------------3(x4)----------6-5-3-0- 


Hola a todos... 

G-------------------------------------- 
D-------------------------------------- 
A-------------------------------------- 
E--0--00--0--000-----35-555-6-5-3-0---- 

Todos corrieron sin entender... 

G-------------------------------------- 
D-------------------------------------- 
A-------------------------------------- 
E--0000-0-0000-0--00--35-555-6-5-3-0--- 

Por favor no huyan de mi... 


G---------------------------------------------   (x2) 
D----------------1---------------------------- 
A-------1-2-3-33---3-1------3-4-5-555--------- 
E-0(x4)----------------3(x4)----------6-5-3-0- 


queda sonando la bata y viene el ultimo solo... 

G-------------------------------------- 
D-------------------------------------- 
A-------------------------------------- 
E--0--00--0--000-----35-555-6-5-3-0---- 

G-------------------------------------- 
D-------------------------------------- 
A-------------------------------------- 
E--0000-0-0000-0--00--35-555-6-5-3-0--- 


uouooouo yeahh! oouo yeah! 

G-------------------------------------- 
D-------------------------------------- 
A-------------------------------------- 
E--0000-0-0000-0--00--35-555-6-5-3-0--- 

Final: 

G---------------------------------- 
D---------------------------------- 
A---------------------------------- 
E--0000-0-0000-0--00--3*5---3----0-   * (pull of) 




Bueno, es una tablatura sacada de oido, está perfecta. 
Acá lo mando completo porque los que hay están mal sacados. 
Sin ofender. 


Aguante La Renga, saludos...(dudas o sugerencias a) 
[email protected]
	  

Search Paypal
auto scroll beats size up size down change color hide chords drawings
tab show chords e-chords YouTube Clip e-chords hide all tabs e-chords go to top tab