Korn

home > Korn

Dirty Bass Tab

Korn

Difficulty: nolevelnolevel

by meta11eir0

tuner correct add songbook print version text version save to e-mail
chordsukulelecavacokeyboardtabbassdrummharmonicsflute Guitar Pro
chords

Dirty

  		Korn 
Dirty 
 
 
Intro/Verso 
F|------------------------------- 
C|------------------------------- 
G|---7---------8-7---7---------8- 
D|-0---7-0-7-0-----0---7-0-7-0--- 
A|------------------------------- 
 
Pre-Refrao 
F|--------------------- 
C|--------------------- 
G|--------------------- 
D|--------------------- 
A|--5-----11--6--1----- 
 
Refrao      3x 
F|--------------------| 
C|-------------------o| 
G|--------------------| 
D|-0---3-------3-----o| 
A|---------1-------3--| 
 
Ponte     
F|------------------- 
C|------------------- 
G|------------------- 
D|-2---3------------- 
A|---------0000-00--- > dÍ tapas na corda 
           ^^^^ ^^ 
 

	  

Search Paypal
auto scroll beats size up size down change color hide chords drawings
tab show chords e-chords YouTube Clip e-chords hide all tabs e-chords go to top tab