Korn

home > Korn

Beat It UpRight Bass Tab

Korn

Difficulty: nolevelnolevel

by meta11eir0

tuner correct add songbook print version text version save to e-mail
chordsukulelecavacokeyboardtabbassdrummharmonicsflute Guitar Pro
chords

Beat It UpRight

  		Korn 
Beat It Up Right 
 
Intro/Verso 
F|------------------------| 
C|------------------------| 
G|------------------------| 
D|------------------------| 
A|-6^-00-6^-00-6^-00-6^-5-| 
 
 
Pre-Refrao 
F|----------------| 
C|----------------| 
G|----------------| 
D|--------5-4-----| 
A|-3-4-3------5-4-| 
 
 
Refrao 
F|--------------------------------| 
C|--------------------------------| 
G|--------------------3\2-----3\2-| 
D|------------------------3\2-----| 
A|-3^-00-3^-00-3^-00--------------| 
 
F|--------------------------------| 
C|--------------------3\2---------| 
G|------------------------3\2-----|x4 
D|----------------------------3\2-| 
A|-3^-00-3^-00-3^-00--------------| 
 
F|---------| 
C|---------| 
G|-2/3\2-0-|x16 
D|---------| 
A|---------| 
 
 
Antes de voltar para o verso: 
F|------------------------| 
C|------------------------| 
G|------------------------|x2 
D|------------------------| 
A|-6^-00-6^-00-6^-00-6^-5-| 
 
 
Outro 
F|--------------------------| 
C|--------------------------| 
G|--------------------------| 
D|--------------------------| 
A|-3^-00-3^-00-3^-00--3/4-3-| 
 
 

	  

Search Paypal
auto scroll beats size up size down change color hide chords drawings
tab show chords e-chords YouTube Clip e-chords hide all tabs e-chords go to top tab