King Gizzard & The Lizard Wizard

Beginners Luck Bass Tab

King Gizzard & The Lizard Wizard

Difficulty: nolevelnolevel

by hugo%5Frodrigues

tuner correct add songbook print version text version save to e-mail
chordsukulelecavacokeyboardtabbassdrumsharmonicsflute Guitar Pro
close

there isn't a video lesson for this song

request
chords

Beginners Luck

  		
Intro 

Rest until 0:22 

G|4-2-----------------------------| 
D|----5-----------------5---------| 
A|------3-------5-----------------| 
E|--------------------------------| 


Chorus 

G|----------------------------------------------2-------2-5-4-2-0---| 
D|-----------------------------7-------------3-----0-3h4------------| 
A|7-----------7-9-10---4------4--------3--------------------------9-| 
E|------------------------------------------------------------------| 

G|-------------------------------------------------------------| 
D|--------------------7h9---7--------------------7-h9-7-\5-----| 
A|7----------7-9-10------------5-7---7-7---9-h10-----------5---| 
E|-------------------------------------------------------------| 

G|-------------------------------------------------------------| 
D|--------------------7h9---7----------------------------------| 
A|7----7-7---7-9-10------------5-7---5-------------------5-----| 
E|---------------------------------------5---3---5---7---------| 


Verse 

G|----7------------5---4-----------------------9-----------9-------------------| 
D|5--0---5--0------------5-3-------4-/7-------9-9------------10-------5--------| 
A|-------------3-------------5-3h5--------7------------10---------3------------| 
E|---------------------------------------------------8---8----------------3----| 

G|------------------------9---12---8----------------------------9----6-----4-2---------------| 
D|--------3---6-------10---------------9---7---5---------------9-9-------------5---------5---| 
A|2---5-----------0--------------------------------4-------7---------------------3---5-------| 
E|-------------------------------------------------------------------------------------------| 


Chorus 

G|----------------------------------------------2-------2-5-4-2-0---| 
D|-----------------------------7-------------3-----0-3h4------------| 
A|7-----------7-9-10---4------4--------3--------------------------9-| 
E|------------------------------------------------------------------| 

G|-------------------------------------------------------------| 
D|--------------------7h9---7--------------------7-h9-7-\5-----| 
A|7----------7-9-10------------5-7---7-7---9-h10-----------5---| 
E|-------------------------------------------------------------| 

G|-------------------------------------------------------------| 
D|--------------------7h9---7----------------------------------| 
A|7----7-7---7-9-10------------5-7---5-------------------5-----| 
E|---------------------------------------5---3---5---7---------| 


Verse 

G|----7------------5---4-----------------------9-----------9-------------------| 
D|5--0---5--0------------5-3-------4-/7-------9-9------------10-------5--------| 
A|-------------3-------------5-3h5--------7------------10---------3------------| 
E|---------------------------------------------------8---8----------------3----| 

G|------------------------9---12---8----------------------------9----6-----4-2---------------| 
D|--------3---6-------10---------------9---7---5---------------9-9-------------5---------5---| 
A|2---5-----------0--------------------------------4-------7---------------------3---5-------| 
E|-------------------------------------------------------------------------------------------| 


Chorus 

G|----------------------------------------------2-------2-5-4-2-0---| 
D|-----------------------------7-------------3-----0-3h4------------| 
A|7-----------7-9-10---4------4--------3--------------------------9-| 
E|------------------------------------------------------------------| 

Rest until 2:42 

G|-------------------------------------------------------------| 
D|--------------------7h9---7--------------------7-h9-7-\5-----| 
A|7----------7-9-10------------5-7---7-7---9-h10-----------5---| 
E|-------------------------------------------------------------| 

G|-------------------------------------------------------------| 
D|------------7---10--9---7------------------------------------| 
A|7---9---10---------------------7---5-------------------5-----| 
E|---------------------------------------5---3---5---7---------| 


Outro 

G|-------------------------------------------------------------| 
D|--------------------7h9---7--------------------7-h9-7-\5-----| 
A|7----------7-9-10------------5-7---7-7---9-h10-----------5---| 
E|-------------------------------------------------------------| 

G|-------------------------------------------------------------| 
D|--------------------7h9---7--------------------7-h9-7-\5-----| 
A|7----------7-9-10------------5-7---7-7---9-h10-----------5---| 
E|-------------------------------------------------------------| 
                                                                        X3 
G|-------------------------------------------------------------| 
D|--------------------7h9---7--------------------7-h9-7-\5-----| 
A|7----------7-9-10------------5-7---7-7---9-h10-----------5---| 
E|-------------------------------------------------------------| 

G|-------------------------------------------------------------| 
D|------------7---10--9---7------------------------------------| 
A|7---9---10---------------------7---5-------------------5-----| 
E|---------------------------------------5---3---5---7---------| 


G|--------| 
D|--------| 
A|7-------| 
E|--------| 




************************************ 

| h   Hammer-on 
| /   Slide up 
| \   Slide down 

************************************ 
	  

Search Paypal
auto scroll beats size up size down change color hide chords drawings
tab show chords e-chords YouTube Clip e-chords hide all tabs e-chords go to top tab

share with facebook