killwitch engage

Numbered Days

killwitch engage

bass

by  EDGE619

save to print version add songbook text version e-mail correct tuner
chordsukulelecavacokeyboardtabbassdrumsharmonicaflute Guitar Pro
close

there isn't a video lesson for this song

chords

Numbered Days

	  		correo:[email protected] 
Tuning: C G C F A D  
  
  
Intro  
|--------------------------|  
|--------------------------|  
|--------------------------| x1  
|-0-0--2---1-------1-------|  
|-0-0--2---1---2---1---1p0-|  
|-0-0----0---0-2-0---0-1p0-|  
PM- -    -   -   -   -  
  
  
|---------------------------------------------------|  
|---------------------------------------------------|  
|---------------------------------------------------| x1  
|-0-0--2---1-------1---------0-0-1-0---0-0-1-0--10\-|  
|-0-0--2---1---2---1---1p0---0-0-1-0---0-0-1-0--10\-|  
|-0-0----0---0-2-0---0-1p0---0-0-1-0---0-0-1-0--10\-|  
PM- -    -   -   -   -       - - - -   - - - -  
  
  
Guitar 1  
|------------------------------------------|  
|------------------------------------------|  
|-----------------------7------------------| x1  
|-0-0-0----0-0-3----0-0------0-0-0---------|  
|-0-0-0----0-0-3----0-0-5----0-0-0---------|  
|-0-0-0----0-0-3----0-0------0-0-0----X\\\-|  
PM- -      - -      - -      - -  
  
  
Guitar 2  
|--------------------------|  
|------8-------------8-----|  
|-7------7-------------7---| x1  
|---5------5-----5-------5-|  
|-----5------5-----5-------|  
|--------------------------|  
  
  
Verse  
|---------------------------------------------------------------------------|     |-----|  
|---------------------------------------------------------------------------|     |-----|  
|---------------------------------------------------------------------------| x4  |-----| x1  
|-0-0--1p0-3p0-4p0-3p0-1p0--0-0-0-0-0-0--1p0--0-0-0-0-0-0--1p0--0-0-0-0-0-0-|     |-(5)-|  
|-0-0--1p0-3p0-4p0-3p0-1p0--0-0-0-0-0-0--1p0--0-0-0-0-0-0--1p0--0-0-0-0-0-0-|     |-----|  
|-0-0--1p0-3p0-4p0-3p0-1p0--0-0-0-0-0-0--1p0--0-0-0-0-0-0--1p0--0-0-0-0-0-0-|     |-----|  
PM- -                       - - - - - -       - - - - - -       - - - - - -  
  
  
Chorus  
|-----------------------------------------------------------|  
|-----------------------------------------------------------|  
|-----------------------------------------------------------| x4  
|--------------------------------------------------2p1--(2)-|  
|-----5-----5-----1-----1-----------1-----3-----5-----------|  
|-0-0---0-0---0-0---0-0---0-0-3-0-0---0-0---0-0-------------|  
PM- -   - -   - -   - -   - -   - -   - -   - -  
  
  
|----------------------------------------------|     |-----|  
|----------------------------------------------|     |-----|  
|----------------------------------------------| x4  |-----| x1  
|-0-0--1p0-3p0-4p0-3p0-1p0---0-0-1-0---0-0-1-0-|     |-(5)-|  
|-0-0--1p0-3p0-4p0-3p0-1p0---0-0-1-0---0-0-1-0-|     |-----|  
|-0-0--1p0-3p0-4p0-3p0-1p0---0-0-1-0---0-0-1-0-|     |-----|  
PM- -                        - - - -   - - - -  
  
  
Chorus  
|-----------------------------------------------------------|  
|-----------------------------------------------------------|  
|-----------------------------------------------------------| x4  
|--------------------------------------------------2p1--(2)-|  
|-----5-----5-----1-----1-----------1-----3-----5-----------|  
|-0-0---0-0---0-0---0-0---0-0-3-0-0---0-0---0-0-------------|  
PM- -   - -   - -   - -   - -   - -   - -   - -  
  
  
Guitar 1  
|------------------|     |-----|  
|------------------|     |-----|  
|------------------| x2  |-----| x1  
|-0----3----5----8-|     |-----|  
|-0----3----5----8-|     |-(2)-|  
|-0----3----5----8-|     |-----|  
  
  
Guitar 2  
|-------------------------------------------------------------------------------------------------------|  
|-------------------------------------------------------------------------------------------------------|  
|-------------------------------------------------------------------------------------------------------| x4  
|-555555-333333-555555-777777-555555-333333-111111---555555-333333-555555--999999--777777-555555-333333-|  
|-------------------------------------------------------------------------------------------------------|  
|-------------------------------------------------------------------------------------------------------|  
  
  
Fill  
|----------------|  
|----------------|  
|----------------| x1  
|-0-5-0-3-3--3-0-|  
|-0-5-0-3-3--3-0-|  
|-0-5-0-3-3--3-0-|  
PM-   -    
  
  
Chorus  
|-------------------------------------------------------------------------|  
|---------------------------------------------------------10-------10-----|  
|------------------------------------------------------------9---9----9---| x1  
|-0-0-3------5-----3-----3h5p3--5------5-----3-----3h5p3-------7--------7-|  
|-0-0-3-------------------------5-----------------------------------------|  
|-0-0-3--0-0---0-0---0-0--------5--0-0---0-0---0-0------------------------|  
         - -   - -   - -           - -   - -   - -  
  
|-------------------------------------------------------------------------------|   
|-------------------------------------------------------------------------------|   
|-------------------------------------------------------------------------------| x1  
|-0-0-0-0-0-3------5-----3-----3h5p3--5------5-----3-----3h5p3--8-8-8-8-8-8-8-8-|   
|-0-0-0-0-0-3-------------------------5-------------------------8-8-8-8-8-8-8-8-|   
|-0-0-0-0-0-3--0-0---0-0---0-0--------5--0-0---0-0---0-0--------8-8-8-8-8-8-8-8-|   
PM  - -        - -   - -   - -           - -   - -   - -  
  
  
Bridge - Guitar 1  
|--------------------------|  
|--------------------------|  
|--------------------------| x1  
|-0---0-0---0---0-0---3--1-|  
|-0---0-0---0---0-0---3--1-|  
|-0---0-0---0---0-0---3--1-|  
PM-   - -   -   - -  
  
  
Bridge - Guitar 1  
|------------------------------------------|  
|------------------------------------------|  
|------------------------------------------| x1  
|-0---0-0---0---0-0---3---3-3---3--0-0-0-1-|  
|-0---0-0---0---0-0---3---3-3---3--0-0-0-1-|  
|-0---0-0---0---0-0---3---3-3---3--0-0-0-1-|  
PM-   - -   -   - -   -   - -   -    - -  
  
  
Bridge - Guitar 1  
|------------------------------------------------|  
|------------------------------------------------|  
|------------------------------------------------| x1  
|-0---0-0---0---0-0---0-0-0-3---3-3---3--0-0-0-1-|  
|-0---0-0---0---0-0---0-0-0-3---3-3---3--0-0-0-1-|  
|-0---0-0---0---0-0---0-0-0-3---3-3---3--0-0-0-1-|  
PM-   - -   -   - -   - - - -   - -   -    - -  
  
  
Bridge - Guitar 2  
|--------------------------------------------------------------------------------------------------|  
|-6-6-6h8p6-----6-6-6-6--6--6-6-6-6h8p6-----6-6-6--8-8-8--8h10p8------8-8-8-8--8--8-8-8--6h8p6-----|  
|-----------8p7-------------------------8p7----------------------10p9--------------------------8p7-| x3  
|--------------------------------------------------------------------------------------------------|  
|--------------------------------------------------------------------------------------------------|  
|--------------------------------------------------------------------------------------------------|  
PM- -           - - - -     - - -           - - -    - -              - - - -     - - -  
  
  
Chorus  
|------------------------------------------------------------------------------|  
|--------------------------------------------------------------10-------10-----|  
|-----------------------------------------------------------------9---9----9---| x1  
|-0-0-0-0-0-3------5-----3-----3h5p3--5------5-----3-----3h5p3------7--------7-|  
|-0-0-0-0-0-3-------------------------5----------------------------------------|  
|-0-0-0-0-0-3--0-0---0-0---0-0--------5--0-0---0-0---0-0-----------------------|  
PM  - -        - -   - -   - -           - -   - -   - -  
  
  
|-------------------------------------------------------------------------------|   
|-------------------------------------------------------------------------------|   
|-------------------------------------------------------------------------------| x1  
|-0-0-0-0-0-3------5-----3-----3h5p3--5------5-----3-----3h5p3--8-8-8-8-8-8-8-8-|   
|-0-0-0-0-0-3-------------------------5-------------------------8-8-8-8-8-8-8-8-|   
|-0-0-0-0-0-3--0-0---0-0---0-0--------5--0-0---0-0---0-0--------8-8-8-8-8-8-8-8-|   
PM  - -        - -   - -   - -           - -   - -   - -  
  
  
Outro  
|---------------------------------------------------------------------------|     |-----|  
|---------------------------------------------------------------------------|     |-----|  
|---------------------------------------------------------------------------| x4  |-----| x1  
|-0-0--1p0-3p0-4p0-3p0-1p0--0-0-0-0-0-0--1p0--0-0-0-0-0-0--1p0--0-0-0-0-0-0-|     |-(5)-|  
|-0-0--1p0-3p0-4p0-3p0-1p0--0-0-0-0-0-0--1p0--0-0-0-0-0-0--1p0--0-0-0-0-0-0-|     |-----|  
|-0-0--1p0-3p0-4p0-3p0-1p0--0-0-0-0-0-0--1p0--0-0-0-0-0-0--1p0--0-0-0-0-0-0-|     |-----|  
PM- -                       - - - - - -       - - - - - -       - - - - - - 
		  

Full key step upFull key step up
Half key step upHalf key step up
Half key step downHalf key step down
Full key step downFull key step down
hide glossary

See also:

bass Seether - Out Of My Way bass Dream Theater - You Not Me bass Dream Theater - As I Am (ver. 2) bass Slipknot - People =Shit bass Slipknot - (sic) bass Dream Theater - The Spirit Carries on
e-chords

Other versions:

bass killwitch engage - Numbered Days
auto scroll beats size up size down change color hide chords drawings
tab show chords e-chords YouTube Clip e-chords hide all tabs e-chords go to top tab

share