Karate

Sever

Karate

bass

by  GUSTSILVA

save to print version add songbook text version e-mail correct tuner
chordsukulelecavacokeyboardtabbassdrumsharmonicaflute Guitar Pro
close

there isn't a video lesson for this song

chords

Sever

	  		

Intro (0:00) 

   1 + 2 + 3 + 4 +   1 + 2 + 3 + 4 +   1 + 2 + 3 + 4 +   1 + 2 + 3 + 4 + 
G|-----------------|-----------------|-----------------|-----------------| 
D|-----------------|-----------------|-----------------|-----------------| 
A|-4-------4-------|-4-------4-------|-4-------\-------|-----------------| 
E|-----4-------4---|-----4-------4---|-----------------|-----------------| 

   1 + 2 + 3 + 4 +   1 + 2 + 3 + 4 +   1 + 2 + 3 + 4 +   1 + 2 + 3 + 4 + 
G|-----------------|-----------------|-----------------|-----------------| 
D|-----------------|-----------------|-----------------|---.---.---------| 
A|-4-------4-------|-------------2---|-4-----------R---|-4-4---4---.-----| 
E|-------------0-2-|-4-------4-----4-|---------------4-|-----------2---4-| 

G|-----------------|-----------------|-----------------|-----------------| 
D|-----------------|-----------------|-----------------|-----------------| 
A|-----------------|-----------------|-4-----------4-2-|-.---------------| 
E|-5-------5-------|-4-------4\------|-----------------|-4---4---------4-| 

   1 + 2 + 3 + 4 +   1 + 2 + 3 + 4 +   1 + 2 + 3 + 4 +   1 + 2 + 3 + 4 + 
G|-----------------|-----------------|-----------------|-----------------| 
D|---------------.-|-----------------|---------------.-|---.---------.---| 
A|-4-----------4-2-|---.---------2---|-4-------4---4/7-|---9---9---9-11--| 
E|-----------------|---4---4-------4-|-----------------|-----------------| 

G|-----------------|-----------------|-----------------|-----------------|-----------------| 
D|-----------------|-----------------|-----------------|-----------------|-----------------| 
A|-12--------------|-11--------------|-4-----------4-2-|-------.---------|-----------------| 
E|---------12----11|---------11---\4-|-----------------|-4---x-4---0-4---|---\-------------| 


verse 1 (0:33, "your eyes they, made lies true...") 
(feel free to play that fret 5 on E as an open A string if you find it easier) 

   1 + 2 + 3 + 4 +   1 + 2 + 3 + 4 +   1 + 2 + 3 + 4 +   1 + 2 + 3 + 4 + 
G|-----------------|-----------------|-----------------|-----------------| 
D|-----------------|-----------------|---------6-----4-|-----------.-----| 
A|-------------7h9-|-------------6-7-|-------------6---|-4---4---R-6---7-| 
E|-5---5---R-5-----|-9---9---R-------|-4---------------|-----------------| 

G|-----------------|-----------------|-.-----.---------|-----------------| 
D|-----------------|-----------------|-6---x-6---x-6---|-------------R---| 
A|-------------7h9-|-------------6h7-|-----------------|-----------------| 
E|-5---5---R-5-----|-9---9---R-------|-----------------|-----------------| 

   1 + 2 + 3 + 4 +   1 + 2 + 3 + 4 +   1 + 2 + 3 + 4 +   1 + 2 + 3 + 4 + 
G|-----------------|-----------------|-----------------|-----------------| 
D|-----------------|-----------------|---------6-----4-|-----------.-----| 
A|-------------7-9-|-------------6h7-|-------------6---|-4---4---R-6---7-| 
E|-5---5---R-5-----|-9---9---R-------|-4---------------|-----------------| 

G|-----------------|-----------------|-.-----.---------|-----------------| 
D|-----------------|-----------------|-6---x-6---x-6---|-------------R---| 
A|-------------7-9-|-------------6h7-|-----------------|-----------------| 
E|-5---5---R-5-----|-9---9---R-------|-----------------|-----------------| 


Instrumental (0:58) 

   1 + 2 + 3 + 4 +   1 + 2 + 3 + 4 +   1 + 2 + 3 + 4 +   1 + 2 + 3 + 4 + 
G|-----------------|-----------------|-----------------|-----------------| 
D|-----------------|-----------------|-----------------|---.---.---------| 
A|-4-------4-------|-------------2---|-4-------4---R---|-4-4---4---.-----| 
E|-------------0-2-|-4-------4-----4-|---------------4-|-----------2---4-| 

G|-----------------|-----------------|-----------------|-----------------| 
D|-----------------|-----------------|-----------------|-----------------| 
A|---------7----\6-|---------6-------|-4-----------4-2-|-.---------------| 
E|-5---------------|-4-------------4-|-----------------|-4---4---------4-| 

   1 + 2 + 3 + 4 +   1 + 2 + 3 + 4 +   1 + 2 + 3 + 4 +   1 + 2 + 3 + 4 + 
G|-----------------|-----------------|-----------------|-----------------| 
D|---------------.-|-----------------|---------------.-|---.---------.---| 
A|-4-----------4-2-|---.---------2---|-4-----------4/7-|---9---9-----11--| 
E|-----------------|---4---4-------4-|-----------------|-----------------| 

G|-----------------|-----------------|-----------------|-----------------|-----------------| 
D|-----------------|---9-------------|-----------------|-----------------|-----------------| 
A|-12--------------|-11----11--------|-4-----------4-2-|-------.---------|-----------------| 
E|---------12---\11|---------11---\4-|-----------------|-4---x-4---0-4---|---\-------------| 


verse 2 (1:25, "once again back, out on the highway...") 

   1 + 2 + 3 + 4 +   1 + 2 + 3 + 4 +   1 + 2 + 3 + 4 +   1 + 2 + 3 + 4 + 
G|-----------------|-----------------|-----------------|-----------------| 
D|-----------------|-----------------|---------6-----4-|-----------.-----| 
A|-------------7-9-|-------------6h7-|-------------6---|-4---4---R-6---7-| 
E|-5---5---R-5-----|-9---9---R-------|-4---------------|-----------------| 

G|-----------------|-----------------|-.-----.---------|-----------------| 
D|-----------------|-----------------|-6---x-6---x-6---|-------------R---| 
A|-------------7h9-|-------------6h7-|-----------------|-----------------| 
E|-5---5---R-5-----|-9---9---R-------|-----------------|-----------------| 

   1 + 2 + 3 + 4 +   1 + 2 + 3 + 4 +   1 + 2 + 3 + 4 +   1 + 2 + 3 + 4 + 
G|-----------------|-----------------|-----------------|-----------------| 
D|-----------------|-----------------|---------6-----4-|-----------.-----| 
A|-------------7-9-|-------------6h7-|-------------6---|-4---4---R-6---7-| 
E|-5---5---R-5-----|-9---9---R-------|-4---------------|-----------------| 

G|-----------------|-----------------|-.-----.---------|-----------------| 
D|-----------------|-----------------|-6---x-6---x-6---|-----6-6-6-6-6-6-| 
A|-------------7h9-|-----------x-6h7-|-----------------|-----------------| 
E|-5---5---R-5-----|-9---9---R-------|-----------------|-----------------| 


Chorus (1:49, "the rain comes down, and turns your shine back to rust...") 

   1 + 2 + 3 + 4 +   1 + 2 + 3 + 4 +   1 + 2 + 3 + 4 +   1 + 2 + 3 + 4 + 
G|-----------------|-----------------|-----------------|---------.-------| 
D|---------7-------|-----------------|-----------------|---------7-------| 
A|-----------------|-----------------|-----------------|-----------------| 
E|-5-----5-----5---|-7-----7-7-------|-9---9---7---7---|-5---5-----------| 

G|-----------------|-----------------|-----------------|-----------------| 
D|---------7-------|-----------------|-----------------|-----------------| 
A|-----------------|-----------------|-4-------4-------|-4-------4-------| 
E|-5-----5-----5---|-7-----7-7-7-----|-----4-------4---|-----4-------4---| 

   1 + 2 + 3 + 4 +   1 + 2 + 3 + 4 +   1 + 2 + 3 + 4 +   1 + 2 + 3 + 4 + 
G|-----------------|-----------------|-----------------|---------.-------| 
D|---------7-------|-----------------|-----------------|---------7-------| 
A|-----------------|-----------------|-----------------|-----------------| 
E|-5-----------5-5-|-7-----7-7-7-7---|-9-------7---7---|-5---5-5---------| 

G|-----------------|-----------------|-----------------|-----------------|-----------------| 
D|-------7-7-------|-----------------|-----------------|-----------------|-----------------| 
A|-----------------|-----------------|-4-------4-------|-4-------4-------|-4-------\-------| 
E|-5-----------5---|-7-----7-7-7-----|-----4-------4---|-----4-------4---|-----------------| 


Instrumental (2:18) 

   1 + 2 + 3 + 4 +   1 + 2 + 3 + 4 +   1 + 2 + 3 + 4 +   1 + 2 + 3 + 4 + 
G|-----------------|-----------------|-----------------|-----------------| 
D|-----------------|-----------------|-----------------|---.---.---------| 
A|-4-------4-------|-------------2---|-4-------4---R---|-4-4---4---.-----| 
E|-------------0-2-|-4-------4-----4-|---------------4-|-----------2---4-| 

G|-----------------|-----------------|-----------------|-----------------| 
D|-----------------|-----------------|-----------------|-----------------| 
A|---------7----\6-|---------6-------|-4-----------4-2-|-.---------------| 
E|-5---------------|-4-------------4-|-----------------|-4---4---------4-| 

   1 + 2 + 3 + 4 +   1 + 2 + 3 + 4 +   1 + 2 + 3 + 4 +   1 + 2 + 3 + 4 + 
G|-----------------|-----------------|-----------------|-----------------| 
D|---------------.-|-----------------|---------------.-|---.---------.---| 
A|-4-----------4-2-|---.---------2---|-4-------4---4/7-|---9---9-----11--| 
E|-----------------|---4---4-------4-|-----------------|-----------------| 

G|-----------------|-----------------|-----------------|-----------------|-----------------| 
D|-----------------|---9-------------|-----------------|-----------------|-----------------| 
A|-12--------------|-11----11--------|-4-----------4-2-|-------.---------|-----------------| 
E|---------12---\11|---------11---\4-|-----------------|-4---x-4---0-4---|---\-------------| 


Bass Solo (2:44) 

   1 + 2 + 3 + 4 +   1 + 2 + 3 + 4 +   1 + 2 + 3 + 4 +   1 + 2 + 3 + 4 + 
G|---------6-------|-----------------|-----------------|-----------------| 
D|-----------------|-6-5-4---R-------|-4-6-------------|-----------------| 
A|-4-------------4-|---------------7-|-----4---R-------|-----------2-----| 
E|-----------------|-----------------|-----------------|-------------0h1-| 

G|-----------------|-----------------|-----------------|-----------------| 
D|-----------------|-----------------|-----------------|-------------2---| 
A|-----------------|-----.-----------|-------.---------|-----------2-----| 
E|-2-----/-5-----2-|-0-1-2-----------|---0-1-2---2-----|-R-0-1-2---------| 

   1 + 2 + 3 + 4 +   1 + 2 + 3 + 4 +   1 + 2 + 3 + 4 +   1 + 2 + 3 + 4 + 
G|---------6-------|-----------------|-----------------|-----------------| 
D|-----------------|-6-5-4---R-------|-4-6-------------|-----------------| 
A|-4-------------4-|---------------7-|-----4---\-------|-----------2-----| 
E|-----------------|-----------------|-----------------|-------------0h1-| 

G|-----------------|-----------------|-----------------|-------------4---| 
D|-----------------|-----------------|-----------------|-----------------| 
A|-----------------|-----.-----------|-------.---------|-----------2---2-| 
E|-2-----/-5-----2-|-0-1-2-----------|---0-1-2---2-----|-R-0-1-2---------| 

   1 + 2 + 3 + 4 +   1 + 2 + 3 + 4 +   1 + 2 + 3 + 4 +   1 + 2 + 3 + 4 + 
G|---------6-------|-----------------|-----------------|-----------------| 
D|-----------------|-6-5-4---R-------|-4-6-------------|-----------------|__ 
A|-4-------------4-|---------------7-|-----4---R-------|-----------2-----|  | 
E|-----------------|-----------------|-----------------|-------------0h1-|  | 
                                                                            | 
G|-----------------|-----------------|-----------------|-----------------|  | 
D|-----------------|-----------------|-----------------|-------------2---|  | 
A|-----------------|-----.-----------|-------.---------|-----------2---2-|  | 
E|-2-----/-5-----2-|-0-1-2-----------|---0-1-2---2-----|-R-0-1-2---------|  | 
                                                                            |- x2 
   1 + 2 + 3 + 4 +   1 + 2 + 3 + 4 +   1 + 2 + 3 + 4 +   1 + 2 + 3 + 4 +    | 
G|---------6-------|-----------------|-----------------|-----------------|  | 
D|-----------------|-6-5-4---R-------|-4-6-------------|-----------------|  | 
A|-4-------------4-|---------------7-|-----4---\-------|-----------2-----|  | 
E|-----------------|-----------------|-----------------|-------------0h1-|  | 
                                                                            | 
G|-----------------|-----------------|-----------------|-------------4---|  | 
D|-----------------|-----------------|-----------------|-----------------|__| 
A|-----------------|-----.-----------|-------.---------|-----------2---2-| 
E|-2-----/-5-----2-|-0-1-2-----------|---0-1-2---2-----|-R-0-1-2---------| 

   1 + 2 + 3 + 4 +   1 + 2 + 3 + 4 +   1 + 2 + 3 + 4 +   1 + 2 + 3 + 4 + 
G|---------6-------|-----------------|-----------------|-----------------| 
D|-----------------|-6-5-4---R-------|-4-6-------------|-----------------| 
A|-4-------------4-|---------------7-|-----4---R-------|-----------2-----| 
E|-----------------|-----------------|-----------------|-------------0h1-| 

G|-----------------|-----------------|-----------------|-----------------| 
D|-----------------|-----------------|-----------------|-------------2---| 
A|-----------------|-----.-----------|-------.---------|-----------2---2-| 
E|-2-----/-5-----2-|-0-1-2-----------|---0-1-2---2-----|-R-0-1-2---------| 


Guitar Solo (4:11) 

   1 + 2 + 3 + 4 +   1 + 2 + 3 + 4 +   1 + 2 + 3 + 4 +   1 + 2 + 3 + 4 + 
G|---------6-------|-----------------|-----------------|-----------------| 
D|-----------------|-6-5-4---R-------|-4-6-------------|-----------------| 
A|-4-------------4-|---------------7-|-----4---\-------|-----------2-----| 
E|-----------------|-----------------|-----------------|-------------0h1-| 

G|-----------------|-----------------|-----------------|-----------------| 
D|-----------------|-----------------|-----------------|-------------2---| 
A|-----------------|-----.-----------|-------.---.---.-|-------.---2---2-| 
E|-2-----/-5-----2-|-0-1-2-----------|---0-1-2---2---2-|---0-1-2---------| 

   1 + 2 + 3 + 4 +   1 + 2 + 3 + 4 +   1 + 2 + 3 + 4 +   1 + 2 + 3 + 4 + 
G|---------6-------|-----------------|-----------------|-----------------| 
D|-----------------|-6-5-4---R-------|-4-6-------------|-----------------| 
A|-4-------------4-|---------------7-|-----4---\-------|-----------2-----| 
E|-----------------|-----------------|-----------------|-------------0h1-| 

G|-----------------|-----------------|-----------------|-----------------| 
D|-----------------|-----------------|-----------------|-------------.---| 
A|-----------------|-----.-----------|-------.---.---.-|-------.-----2---| 
E|-2-----/-5-----2-|-0-1-2-----------|---0-1-2---2---2-|---0-1-2---2-----| 


Instrumental (4:36) 

   1 + 2 + 3 + 4 +   1 + 2 + 3 + 4 +   1 + 2 + 3 + 4 +   1 + 2 + 3 + 4 + 
G|-----------------|-----------------|-----------------|-6-6---6---------| 
D|-2-2-2-2-2-------|-----------------|-------------6-4-|-----------------| 
A|-----------4-----|-----\-----------|-4-4-------------|-----------------| 
E|-----------------|-----------------|-----------------|-------------0h1-| 

G|-----------------|-----------------|-----------------|-----------------| 
D|-----------------|-----------------|-----------------|-----------------| 
A|-----------------|-----------------|-----------------|-----------------| 
E|-2-2-2-2-5-----2-|-0-1-2---2-----0-|-2-2-2-2-5-----2-|-0-1-2---2-2-2-2-| 

   1 + 2 + 3 + 4 +   1 + 2 + 3 + 4 +   1 + 2 + 3 + 4 +   1 + 2 + 3 + 4 + 
G|-----------------|-----------------|-----------------|-6-6---6---------| 
D|-2-2-2-2-2-------|-----------------|-------------6-4-|-----------------| 
A|-----------4-----|-----\-----------|-4-4-------------|-----------------| 
E|-----------------|-----------------|-----------------|-------------0h1-| 

G|-----------------|-----------------|-----------------|-----------------| 
D|-----------------|-----------------|-----------------|-----------------| 
A|-----------------|-----------------|-----------------|-----------------| 
E|-2---2-2-5-----2-|-0-1-2---2-----0-|-2-2-2-/-5-----2-|-0-1-2---2-2-2-/-| 


Chorus (5:00, "the rain comes down, and turns your shine back to rust...") 

   1 + 2 + 3 + 4 +   1 + 2 + 3 + 4 +   1 + 2 + 3 + 4 +   1 + 2 + 3 + 4 + 
G|-----------------|-----------------|-----------------|---------.-------| 
D|---------7-------|-----------------|-----------------|---------7-------| 
A|-----------------|-----------------|-----------------|-----------------| 
E|-5-----5-----5---|-7-----7-7-7---7-|-9---9---7---7---|-5---5-----------| 

G|-----------------|-----------------|-----------------|-----------------| 
D|---------7-------|-----------------|-----------------|-----------------| 
A|-----------------|-----------------|-4-------4-------|-4-------4-------| 
E|-5-----5-----5---|-7-----7-7-7-----|-----4-------4---|-----4-------4---| 

   1 + 2 + 3 + 4 +   1 + 2 + 3 + 4 +   1 + 2 + 3 + 4 +   1 + 2 + 3 + 4 + 
G|-----------------|-----------------|-----------------|---------.-------| 
D|---------7-------|-----------------|-----------------|---------7-------| 
A|-----------------|-----------------|-----------------|-----------------| 
E|-5-----------5-5-|-7-----7-7-7---7-|-9---9---7---7---|-5---5-5---------| 

G|-----------------|-----------------|-----------------|-----------------| 
D|---------7-------|-----------------|-----------------|-----------------| 
A|-----------------|-----------------|-4-------4-------|-4-------4-------| 
E|-5-----------5---|-7-----7-7-7-----|-----4-------4---|-----4-------4---| 

   1 + 2 + 3 + 4 +   1 + 2 + 3 + 4 +   1 + 2 + 3 + 4 +   1 + 2 + 3 + 4 + 
G|-----------------|-----------------|-----------------|-----------------| 
D|---------7-------|-----------------|-----------------|-----------------| 
A|-----------------|-----------------|-4-------4-------|-4-------4-------| 
E|-5---5-5-----5---|-7-----7-7-7-----|-----4-------4---|-----4-------4---| 

G|-----------------|-----------------|-----------------|-----------------| 
D|---------7-7-7-8-|-9-9-------------|-----------------|-----------------| 
A|-----------------|-------9---------|-4-------4-------|-4-------4-------| 
E|-5---5-5---------|---------7---7-0-|-----4-------4---|-----4-------4---| 

   1 + 2 + 3 + 4 +   1 + 2 + 3 + 4 +   1 + 2 + 3 + 4 +   
G|-----------------|-----------------|-----------------| 
D|-----------------|-----------------|-----------------| 
A|-4-------4-------|-4-4-----4-4-----|-4---------------| 
E|-----4-------4---|-----4-4-----4-4-|-----------------| 


************************************ 

| x   Dead note 
| .   Staccato 
| R   Rest 
| h   Hammer-on 
| /   Slide up 
| \   Slide down 

************************************ 
		  

auto scroll beats size up size down change color hide chords drawings
tab show chords e-chords YouTube Clip e-chords hide all tabs e-chords go to top tab

share