John Williams

home > John Williams

Imperial March Bass Tab

John Williams

Difficulty: ExpertExpert

by rascalflattsbr

tuner correct add songbook print version text version save to e-mail
chordsukulelecavacokeyboardtabbassdrumsharmonicsflute Guitar Pro
chords

Imperial March

  		
     Q    Q    Q    E.  S    Q    E.  S H           Q    Q    Q    E.  S   
G||-----------------------|----------------------|-----------------------| 
D||-----------------------|----------------------|--3----3----3----4-----| 
A||--1----1----1--------4-|--1--------4-1--------|---------------------4-| 
E||-----------------2-----|-------2--------------|-----------------------| 


  Q    E.  S H           Q    E.  S Q    E.  S    S S E  E  E  Q    E.  S   
----------------------|--3----------3----2---1-|--0---0-------------------| 
----------------------|------------------------|----4----------2----1---0-| 
--0--------4-1--------|-------1---1------------|------------2-------------| 
-------2--------------|------------------------|--------------------------| 


  S S E  E  E  Q    E.  S    Q    E.  S H           Q    E.  S Q    E.  S   
--------------------------|----------------------|--3----------3----2---1-| 
--------------------------|-------------3--------|------------------------| 
--4-3-4--------1--------1-|--4----1---4----------|-------1---1------------| 
------------2-------2-----|----------------------|------------------------| 


  S S E  E  E  Q    E.  S    S S E  E  E  Q    E.  S    Q    E.  S H           
--0---0-------------------|--------------------------|----------------------|| 
----4----------2----1---0-|--------------------------|----------------------|| 
------------2-------------|--4-3-4--------1--------1-|--4--------4-1--------|| 
--------------------------|------------2-------2-----|-------2--------------|| 



Duration Legend 
H - half 
Q - quarter 
E - 8th 
S - 16th 
. - note dotted 
	  

Search Paypal
auto scroll beats size up size down change color hide chords drawings
tab show chords e-chords YouTube Clip e-chords hide all tabs e-chords go to top tab