John Mayer

Neon

John Mayer

bass Advanced advanced

by  - KEPLER -

save to print version add songbook text version e-mail correct tuner
chordsukulelecavacokeyboardtabbassdrumsharmonicaflute Guitar Pro
close

there isn't a video lesson for this song

chords

Neon

Year: 1999 - Album: Room For Squares

	  		Tuning: Standard 
 
Intro: 
 
G---------------------3----- 
D--------1--3--3--3/6------- 
A-----3---------------------  2x 
E--------------------------- 
 
1st verse: 
 
---------------------------- 
-----------1---------------- 
-----3---3---------------1--  5x 
---------------0-1---1-4---- 
 
1st Refrian: 
 
----------------------------- 
----------------------------- 
------------------9---3/8/3-- 
-----4--3--2--2/9------------ 
 
2nd verse :  
 
----------------------------- 
-----------1---3------------- 
-----3---3----------------1--  6x 
----------------0-1---1-4---- 
 
2nd Refrain: 
------------------------------------------- 
------------------------------------------- 
----------------10----------9-9---9-------- 
-----4--3--3/10------2--2/9-----9---------- 
 
----------------------------------------------- 
------------5---5------------------------------ 
--------4h5---5---------------------------11--- 
-----4--------------1--1--3--4-4-4---4/11------ 
 
Chorus: 
 
---------------------------------------------- 
---------------------------------------------- 
------------------1---3-----1---3-----1------- 
-----1---1-3/4/3----------3---3----3-----4---- 
 
----------------------------------------------- 
--------------------------5-5----5-5----------- 
------------------1---3-------3------3----3---- 
-----1---1-3/4/3------------------------3------ 
 
------------------------------------------------ 
------------------------------------------------ 
------------------1-2-3---3--3-1---1------------ 
-----1---1-3/4/3---------------------3-4--3-4-4- 
 
------------------------------------------------ 
---------6----6----6----6----------------------- 
-----3/6----6----6----6---6/3------------------- 
------------------------------------------------ 
 
3rd verse: Repeat 2nd verse 6x 
 
3rd Refrain: 
 
------------------------------------------------ 
----------------------11---11-11/--------------- 
------------------9------9---------------------- 
-----4--3--2--2/9------------------------------- 
 
------------------------------------------------ 
-----------------------------8------------------ 
--------------------1--(1)/8---8---------------- 
-----4--3--1--3--4---------------6/------------- 
 
Chorus 2: 
 
------------------------------------------------ 
------------------------------------------------ 
------------------1---3-----1---3-----1--------- 
-----1---1-3/4/3----------3---3----3-----4------ 
 
----------------------------------- 
----------------------------------- 
-----------1--3-----1---3---1------ 
-----1--3---------3---3---3---4-3-- 
 
----------------------------------- 
----------------------------------- 
----------------1-2-3---3-1-------- 
-----1---3/4/3----------------4---- 
 
----------------------------------- 
----------------------------------- 
----------11----11--------11------- 
-----4/11----11------4/11----11/--- 
 
Bridge: 
 
----------------------------------- 
----------------------------------- 
--------------------1-1-1/3-------- 
-----1--3-3---4-4------------------ 
 
----------------------------------- 
----------------------------------- 
--------------------1-1-1---------- 
-----1--3-3---4-4------------------ 
 
--------------------------------------------- 
-------------------------------8----8-8/10--- 
---------------------1-1--3/10---10---------- 
-----1--3--3-4--4-1-------------------------- 
 
-------------------------------------------------- 
--------8-------10--------------------8-------10-- 
-----10---10/12--------------------10---10/12----- 
------------------------8-8----------------------- 
 
4th Refrain: 
-------------------------------------------------- 
-------------------------------------------------- 
-------------11-------------10--------9----------- 
-----4--4/11----11/3-3-3/10-----2-2/9------------- 
 
-------------------------------------------------- 
-----13----13-13----10----10---------------------- 
--------10-------10----10----10/------------------ 
-------------------------------------------------- 
 
---------------------------------------------------------- 
---------------6------------------------------------------ 
-----------2/6---------1/3---------------------------1-1-- 
------4---4-------3--3-----3---3-0-1-1-3-3--3-4-4--4------ 
 
----------5------- 
------3/5---5----- 
--------------3/-- 
------------------ 
 
3rd Chorus: 
 
------------------------------------------------------------ 
------------------------------------------------------------ 
---------------1-3----1---3--1------------1-3----3---1-3---- 
-----1--3/4/3-------3---3-------1--3/4/3-------3---3-----3-- 
 
----------------------------------------------------------------- 
----------------------------------------------------------------- 
---------------1-3--3-1-------------------11----11-------11------ 
-----1--3/4/3------------3-4--4-4-4--4/11----11-----6/11----11/-- 
 
Repeat 2nd verse 2x 
 
----------------------------- 
----------------------------- Outro... 
-----3----1---3---3----1-3--- 
--------3---3--------3------- 

		  

auto scroll beats size up size down change color hide chords drawings
tab show chords e-chords YouTube Clip e-chords hide all tabs e-chords go to top tab

share