John Lennon

home > John Lennon

Ya Ya Bass Tab

John Lennon

Difficulty: nolevelnolevel

by edsooliveira

tuner correct add songbook print version text version save to e-mail
chordsukulelecavacokeyboardtabbassdrumsharmonicsflute Guitar Pro
chords

Ya Ya

Year: 2004 - Album: Rock 'n' Roll

Key:  C More
Ya Ya Key GG
Ya Ya Key G#G#
Ya Ya Key AA
Ya Ya Key A#A#(one step down)
Ya Ya Key BB(half step down)
Ya Ya Key CC(original key)
Ya Ya Key C#C#(half step up)
Ya Ya Key DD(one step up)
Ya Ya Key D#D#
Ya Ya Key EE
Ya Ya Key FF
Ya Ya Key F#F#
  		
Intro 
G|---------------------------------|---------------------------------| 
D|---------------------------------|------------------0-1------------| 
A|8---8---6---6---5---5---4---4----|3-------3-------3-----------4----| 
E|---------------------------------|---------------------------------| 

Chorus 
G|---------------------------------|---------------------------------| 
D|3---------------3-----------0----|3---------------3---0------------| 
A|--------3---------------3--------|--------3---------------3---2----| 
E|---------------------------------|---------------------------------| 

G|---------------------------------|---------------------------------| 
D|----------------------------5----|3---------------3----------------| 
A|1---------------1-------5--------|--------3---------------5---4----| 
E|--------1------------------------|---------------------------------| 

G|---------------------------------|---------------------------------| 
D|----------------------------5----|3---------------3-----------0----| 
A|3---------------1-------5--------|--------3---------------3--------| 
E|--------3------------------------|---------------------------------| 

G|---------------------------------|---------------------------------| 
D|3---------------3----------------|3-----------0---3---0------------| 
A|--------3---------------3--------|--------3---------------3---2----| 
E|---------------------------------|---------------------------------| 

G|---------------------------------|---------------------------------| 
D|----------------------------5----|3---------------3----------------| 
A|1---------------1-------5--------|--------3---------------5---4----| 
E|--------1------------------------|---------------------------------| 

G|---------------------------------|---------------------------------| 
D|----------------------------5----|3---------------3----------------| 
A|3---------------1-------5--------|--------3---------------3--------| 
E|--------3------------------------|---------------------------------| 

Solo 
G|---------------------------------|---------------------------------| 
D|---------------------------------|----------------3----------------| 
A|----0---3---5---6---5---3---0----|----0---3---5-------6---5---3----| 
E|1--------------------------------|1--------------------------------| 

G|---------------------------------|---------------------------------| 
D|----0---3---5---6---5---3---0----|----------------3----------------| 
A|1--------------------------------|----0---3---5-------5---3---0----| 
E|---------------------------------|1--------------------------------| 

G|---------------------------------|---------------------------------| 
D|---------------------------------|----------------3----------------| 
A|----0---1---2---3---1---0--------|----0---3---5-------5---3---0----| 
E|3---------------------------3----|1--------------------------------| 

Chorus 
G|---------------------------------|---------------------------------| 
D|3---------------3-----------0----|3-------------/-6---5---3--------| 
A|--------3---------------3--------|--------3-------------------0----| 
E|---------------------------------|---------------------------------| 

G|---------------------------------|---------------------------------| 
D|----------------------------5----|3---------------3----------------| 
A|1---------------1-------5--------|--------3-----------5---3---0----| 
E|--------1------------------------|---------------------------------| 

G|---------------------------------|---------------------------------| 
D|----------------------------5----|3---------------3----------------| 
A|3---------------1-------5--------|--------3-------------------6----| 
E|--------3------------------------|------------------------8--------| 

G|---------------------------------|---------------------------------| 
D|---------------------------------|------------------0-1------------| 
A|8---8---6---6---5---5---4---4----|3-------3-------3----------------| 
E|---------------------------------|---------------------------------| 

G|---------------------------------|---------------------------------| 
D|3---------------3-----------0----|3-------------/-6---5---3--------| 
A|--------3---------------3--------|--------3-------------------0----| 
E|---------------------------------|---------------------------------| 

G|---------------------------------|---------------------------------| 
D|----------------------------5----|3---------------3----------------| 
A|1---------------1-------5--------|--------3---------------5---4----| 
E|--------1------------------------|---------------------------------| 

G|---------------------------------|---------------------------------| 
D|---------------------------------|3---------------3-----------0----| 
A|3---------------1-------5---3----|--------3---------------3--------| 
E|--------3------------------------|---------------------------------| 

Solo 
G|---------------------------------|---------------------------------| 
D|3---------------3-----------0----|3---------------3----------------| 
A|--------3---------------3--------|--------3-------------------0----| 
E|---------------------------------|------------------------1--------| 

G|---------------------------------|---------------------------------| 
D|----------------------------5----|3---------------3----------------| 
A|1---------------1-------5--------|--------3---------------5---4----| 
E|--------1------------------------|---------------------------------| 

G|---------------------------------|---------------------------------| 
D|----------------------------5----|3---------------3-----------0----| 
A|3---------------1-------5--------|--------3---------------3--------| 
E|--------3------------------------|---------------------------------| 

G|---------------------------------|---------------------------------| 
D|3-----------0---3----------------|3-----------0---3----------------| 
A|--------3---------------3--------|--------3---------------3--------| 
E|---------------------------------|---------------------------------| 

G|---------------| 
D|/6--5---3------| 
A|------------0--| 
E|---------------| 

G|---------------------------------|---------------------------------| 
D|----------------------------5----|3---------------3----------------| 
A|1---------------1-------5--------|--------3---------------5---4----| 
E|--------1------------------------|---------------------------------| 

G|---------------------------------|---------------------------------| 
D|---------------------------------|3-----------0---3----------------| 
A|3---------------1-------5--------|--------3---------------3--------| 
E|--------3-------------------3----|---------------------------------| 



*********************************** 

/ = slide up 

*********************************** 
	  

Search Paypal
auto scroll beats size up size down change color hide chords drawings
tab show chords e-chords YouTube Clip e-chords hide all tabs e-chords go to top tab