Jimi Hendrix

home > Jimi Hendrix

Purple Haze Bass Tab

Jimi Hendrix

Difficulty: nolevelnolevel

by Acelot

tuner correct add songbook print version text version save to e-mail
chordsukulelecavacokeyboardtabbassdrummharmonicsflute Guitar Pro
chords

Purple Haze

Year: 1967 - Album: Experience Hendrix: The Best of Jimi Hendrix

(Jimi Hendrix)

	  
Intro: 

G|----9---9---9---9---9---9---9---9---9----| 
D|-----------------------------------------| 
A|--7---7---7---7---7---7---7---7---7---7--| 
E|-----------------------------------------| 

Verse: 

G|-------------------------------------------------------------| 
D|-------------------------------------------------------------| 
A|----7-----7--------------4-5-----7-----7-------------4-5---7-| 
E|--0---0-0----3-3-3---5-5-------0---0-0----3-3-3--5-5---------| 

Riff: 

G|--------------7-12\------7-12\--| 
D|----------7h9--------7h9--------| 
A|-7h9-7-5------------------------| 
E|--------------------------------| 

Bridge: 

G|-------------------------------------------| 
D|-------------------------------------------| 
A|-----------------------------5-5-5--5-5-5--| 
E|-5-5-5--5-5-5--7-7-7--7-7-7----------------| 

Solo: 

G|--------------------------------------------------------------| 
D|--------------------------------------------------------------| 
A|----7------7----7h9--7h9-5-5-5----7------7----7h9--7h9-5-5-5--| 
E|--0----0-0---0------------------0----0-0---0------------------| 
	  

there isn't a video lesson for this song

request
Search
auto scroll beats size up size down change color hide chords drawings
tab show chords e-chords YouTube Clip e-chords hide all tabs e-chords go to top tab