Jeff Tweedy

Lets Go Rain

Jeff Tweedy

bass nolevel nolevel

by  BRUNBLAZKOWSKI

save to print version add songbook text version e-mail correct tuner
chordsukulelecavacokeyboardtabbassdrumsharmonicaflute Guitar Pro
close

there isn't a video lesson for this song

chords

Lets Go Rain

	  		
Intro 

G|7---------------|----------------|----------------|7---------------| 
D|0--------7------|----------------|----------------|0-------7-------| 
A|---------0------|0-------7-------|0-------7---9---|--------0-------| 
E|----------------|----------------|----------------|----------------| 
  1   2   3   4    1   2   3   4    1   2   3   4    1   2   3   4 


verse 1 

G|7---------------|----------------|----------------|7---------------| 
D|0--------7------|----------------|----------------|0-------7-------| 
A|---------0------|0-------7-------|0-------7---9---|--------0-------| 
E|----------------|----------------|----------------|----------------| 
  1   2   3   4    1   2   3   4    1   2   3   4    1   2   3   4 


G|7---------------|----------------|----------------|7---------------| 
D|0---------------|----------------|----------------|0-------7-------| 
A|--------9-------|0-------7-------|0-------7---9---|--------0-------| 
E|----------------|----------------|----------------|----------------| 
  1   2   3   4    1   2   3   4    1   2   3   4    1   2   3   4  


Chorus 1 

G|------------4-7-|------------4---|7---------------|------------4-7-|----------------|----------------| 
D|5---4---7-------|5---4---7-------|0---0---2---4---|5---4---7-------|5---4-----------|----------------| 
A|--------0-------|--------0-------|----------------|--------0-------|--------7---7---|5-------0---2-4-| 
E|----------------|----------------|----------------|----------------|----------------|----------------| 
  1   2   3   4    1   2   3   4    1   2   3   4    1   2   3   4    1   2   3   4    1   2   3   4 


verse 2 

G|7---------------|----------------|----------------|7---------------| 
D|0--------7------|----------------|----------------|0-------7-------| 
A|---------0------|0-------7-------|0-------7---9---|--------0-------| 
E|----------------|----------------|----------------|----------------| 
  1   2   3   4    1   2   3   4    1   2   3   4    1   2   3   4 


G|7---------------|----------------|----------------|7---------------| 
D|0---------------|----------------|----------------|0-------7-------| 
A|--------9-------|0-------7-------|0-------7---9---|--------0---0-0-| 
E|----------------|----------------|----------------|----------------| 
  1   2   3   4    1   2   3   4    1   2   3   4    1   2   3   4  
   
   
  Chorus 1 

G|------------4-7-|------------4---|7---------------|------------4-7-|------------4---|7-------| 
D|5---4---7-------|5---4---7-------|0---0-----2/4-0-|5---4---7-------|5---4---7-------|0-------| 
A|--------0-------|--------0-------|----------------|--------0-------|--------0-------|--------| 
E|----------------|----------------|----------------|----------------|----------------|--------| 
  1   2   3   4    1   2   3   4    1   2   3   4    1   2   3   4    1   2   3   4    1   2    
   

Bridge  

G|---------------|----------------|----------------|----------------|----------------|--------0-------| 
D|4--------------|--------------0-|4---------------|----------------|4---------------|----------------| 
A|--------4------|2-----------2---|--------4-------|0-------2---4---|--------4-------|2---------------| 
E|2--------------|--------3-------|2---------------|----------------|2---------------|----------------| 
  1   2   3   4   1   2   3   4    1   2   3   4    1   2   3   4    1   2   3   4    1   2   3   4 
   
   
G|----------------|----------------| 
D|4---------------|----------------| 
A|--------4-------|0---0---2---4---| 
E|2---------------|----------------| 
  1   2   3   4    1   2   3   4     


Solo   
   
G|7---------------|--------9-------|--------9---B---|7---------------| 
D|0--------7------|7---------------|7---------------|0-------7-------| 
A|---------0------|0-------7-------|0-------7---9---|--------0-------| 
E|----------------|----------------|----------------|----------------| 
  1   2   3   4    1   2   3   4    1   2   3   4    1   2   3   4 


G|7---------------|----------------|----------------|7---------------| 
D|0---------------|----------------|----------------|0-------0---2---| 
A|--------9-------|0-------7-------|0-------7---9---|----------------| 
E|----------------|----------------|----------------|----------------| 
  1   2   3   4    1   2   3   4    1   2   3   4    1   2   3   4  
   

Chorus 3 

G|------------4-7-|------------4---|7---------------|------------4-7-|------------4---|7-------| 
D|5---4---7-------|5---4---7-------|0------02---4---|5---4---7-------|5---4---7-------|0---0---| 
A|--------0-------|--------0-------|----------------|--------0-------|--------0-------|--------| 
E|----------------|----------------|----------------|----------------|----------------|--------| 
  1   2   3   4    1   2   3   4    1   2   3   4    1   2   3   4    1   2   3   4    1   2    
   
  
Solo 2 

G|---------------|----------------|----------------|----------------|----------------|--------0-------| 
D|4--------------|--------------0-|4---------------|----------------|4---------------|----------------| 
A|--------4------|2-----------2---|--------4-------|0-------2---4---|--------4-------|2---------------| 
E|2--------------|--------3-------|2---------------|----------------|2---------------|----------------| 
  1   2   3   4   1   2   3   4    1   2   3   4    1   2   3   4    1   2   3   4    1   2   3   4 
   
   
G|----------------|----------------| 
D|4---------------|----------------| 
A|--------4-------|0---0---2---4---| 
E|2---------------|----------------| 
  1   2   3   4    1   2   3   4     


verse 3 

G|7---------------|----------------|----------------|7---------------| 
D|0--------7------|----------------|----------------|0-------7-------| 
A|---------0------|0-------7-------|0-------7---9---|--------0-------| 
E|----------------|----------------|----------------|----------------| 
  1   2   3   4    1   2   3   4    1   2   3   4    1   2   3   4 


G|7---------------|----------------|----------------|7---------------| 
D|0---------------|----------------|----------------|0-------7-------| 
A|--------9-------|0-------7-------|0-------7---9---|--------0-------| 
E|----------------|----------------|----------------|----------------| 
  1   2   3   4    1   2   3   4    1   2   3   4    1   2   3   4  
   
   
Outtro 

G|------------4-7-|------------4---|7---------------|------------4-7-|------------4---|7---7\----------| 
D|5---4---7-------|5---4---7-------|0------02---4---|5---4---7-------|5---4---7-------|0---0---2---4---| 
A|--------0-------|--------0-------|----------------|--------0-------|--------0-------|----------------| 
E|----------------|----------------|----------------|----------------|----------------|----------------| 
  1   2   3   4    1   2   3   4    1   2   3   4    1   2   3   4    1   2   3   4    1   2   3   4       


G|------------4-7-|------------4---|7---------------| 
D|5---4---7-------|5---4---7-------|0---0---2---4---|  Fade ... 
A|--------0-------|--------0-------|----------------| 
E|----------------|----------------|----------------| 
  1   2   3   4    1   2   3   4    1   2   3   4        



************************************ 
| /  Slide up 
| \  Slide down 
************************************ 
		  

See also:

bass Deep Purple - Smoke On The Water (ver. 3) bass Deep Purple - Ted The Mechanic bass Deep Purple - Fire Ball bass Deep Purple - Black Night bass Deep Purple - Lady Double Dealer bass Deep Purple - Knocking At Your Back Door
e-chords

Other versions:

bass Jeff Tweedy - Lets Go Rain
auto scroll beats size up size down change color hide chords drawings
tab show chords e-chords YouTube Clip e-chords hide all tabs e-chords go to top tab

share with facebook