Jane's Ground

Right on Time

Jane's Ground

bass

by  RAFAEL_BALZARY

save to print version add songbook text version e-mail correct tuner
chordsukulelecavacokeyboardtabbassdrumsharmonicaflute Guitar Pro
close

there isn't a video lesson for this song

chords

Right on Time

	  		Verse 1 
G|------------------| (x8) 
D|------------------| 
A|----9-7-----------| 
E|--------9--x9-x9--| 
 
Chorus 1 
G|-------------------------9-9-9-9---------------------11-11-11-11--| (x4) 
D|--------11-11-11-11--------------------9-9-9-9--------------------| 
A|------------------------------------------------------------------| 
E|------------------------------------------------------------------| 
 
Verse 2 (same as Verse 1) 
 
Chorus 2 
G|-------------------------9-9-9-9---------------------11-11-11-11--| (x4) 
D|-------11-11-11-11---------------------9-9-9-9--------------------| 
A|------------------------------------------------------------------| 
E|------------------------------------------------------------------| 
 
G|-------------------------13-13-13-13-----------------15-15-15-15--| (x2) 
D|-------15-15-15-15---------------------13-13-13-13----------------| 
A|------------------------------------------------------------------| 
E|------------------------------------------------------------------| 
 
Verse 3 (same as Verse 1) 
 
Chorus 3 (same as Chorus 1) 
 
Ending 
G|-------------| 
D|-------------| 
A|----9-7------| 
E|---------9\--| 
 
 
  
 

		  

auto scroll beats size up size down change color hide chords drawings
tab show chords e-chords YouTube Clip e-chords hide all tabs e-chords go to top tab

share