IDLES

Mother

IDLES

bass

by  ANG-LETRA

save to print version add songbook text version e-mail correct tuner
chordsukulelecavacokeyboardtabbassdrumsharmonicaflute Guitar Pro
close

there isn't a video lesson for this song

chords

Mother

Key:  Bm More
Mother Key F#mF#m
Mother Key GmGm
Mother Key G#mG#m
Mother Key AmAm(one step down)
Mother Key A#mA#m(half step down)
Mother Key BmBm(original key)
Mother Key CmCm(half step up)
Mother Key C#mC#m(one step up)
Mother Key DmDm
Mother Key D#mD#m
Mother Key EmEm
Mother Key FmFm
	  		Intro 
G|-------------------|-------------------| 
D|-------------------|-------------------| 
A|--2-2-2-2-2-2-2-2--|--2-2-2-2-2-2-2-2--| 
E|-------------------|-------------------| 


verse 1 
G|-------------------|-------------------|-------------------|-------------------| 
D|-------------------|-------------------|-------------------|-------------------| 
A|--5-5-5-5-5-5-5-5--|--5-5-5-5-5-5-5-5--|--4-4-4-4-4-4-4-4--|--4-4-4-4-4-4-4-5--| 
E|-------------------|-------------------|-------------------|-------------------| 

G|-------------------|-------------------| 
D|-------------------|-------------------| 
A|--2-2-2-2-2-2-2-2--|--2-2-2-2-2-2-2-2--| 
E|-------------------|-------------------| 


verse 2 
G|-------------------|-------------------|-------------------|-------------------| 
D|-------------------|-------------------|-------------------|-------------------| 
A|--5-5-5-5-5-5-5-5--|--5-5-5-5-5-5-5-5--|--4-4-4-4-4-4-4-4--|--4-4-4-4-4-4-4-5--| 
E|-------------------|-------------------|-------------------|-------------------| 

G|-------------------|-------------------| 
D|-------------------|-------------------| 
A|--2-2-2-2-2-2-2-2--|--2-2-2-2-2-2-2-2--| 
E|-------------------|-------------------| 


Chorus 1 
G|-------------------|-------------------|-------------------|-------------------| 
D|-------------------|-------------------|-------------------|-------------------| 
A|--5-5-5-5-5-5-5-5--|--5-5-5-5-5-5-5-5--|--4-4-4-4-4-4-4-4--|--4-4-4-4-4-4-4-5--| 
E|-------------------|-------------------|-------------------|-------------------| 

G|-------------------|-------------------| 
D|-------------------|-------------------| 
A|--2-2-2-2-2-2-2-2--|--2-2-2-2-2-2-2-2--| 
E|-------------------|-------------------| 

G|-------------------|-------------------|-------------------|-------------------|| 
D|-------------------|-------------------|-------------------|-------------------|| 
A|--9-9-9-9-9-9-9-9--|--9-9-9-9-9-9-9-9--|--7-7-7-7-7-7-7-7--|--7-7-7-7-7-7-7-7--|| 
E|-------------------|-------------------|-------------------|-------------------|| 
                                                                                  | (x2) 
G|-------------------|-------------------|-------------------|-------------------|| 
D|-------------------|-------------------|-------------------|-------------------|| 
A|-------------------|-------------------|-------------------|-------------------|| 
E|--7-7-7-7-7-7-7-7--|--7-7-7-7-7-7-7-7--|--7-7-7-7-7-7-7-7--|--7-7-7-7-7-7-7-7--|| 


verse 3 
G|-------------------|-------------------|-------------------|-------------------| 
D|-------------------|-------------------|-------------------|-------------------| 
A|--5-5-5-5-5-5-5-5--|--5-5-5-5-5-5-5-5--|--4-4-4-4-4-4-4-4--|--4-4-4-4-4-4-4-5--| 
E|-------------------|-------------------|-------------------|-------------------| 

G|-------------------|-------------------| 
D|-------------------|-------------------| 
A|--2-2-2-2-2-2-2-2--|--2-2-2-2-2-2-2-2--| 
E|-------------------|-------------------| 


verse 4 
G|-------------------|-------------------|-------------------|-------------------| 
D|-------------------|-------------------|-------------------|-------------------| 
A|--5-5-5-5-5-5-5-5--|--5-5-5-5-5-5-5-5--|--4-4-4-4-4-4-4-4--|--4-4-4-4-4-4-4-5--| 
E|-------------------|-------------------|-------------------|-------------------| 

G|-------------------|-------------------| 
D|-------------------|-------------------| 
A|--2-2-2-2-2-2-2-2--|--2-2-2-2-2-2-2-2--| 
E|-------------------|-------------------| 


Chorus 2 
G|-------------------|-------------------|-------------------|-------------------| 
D|-------------------|-------------------|-------------------|-------------------| 
A|--5-5-5-5-5-5-5-5--|--5-5-5-5-5-5-5-5--|--4-4-4-4-4-4-4-4--|--4-4-4-4-4-4-4-5--| 
E|-------------------|-------------------|-------------------|-------------------| 

G|-------------------|-------------------| 
D|-------------------|-------------------| 
A|--2-2-2-2-2-2-2-2--|--2-2-2-2-2-2-2-2--| 
E|-------------------|-------------------| 

G|-------------------|-------------------|-------------------|-------------------|| 
D|-------------------|-------------------|-------------------|-------------------|| 
A|--9-9-9-9-9-9-9-9--|--9-9-9-9-9-9-9-9--|--7-7-7-7-7-7-7-7--|--7-7-7-7-7-7-7-7--|| 
E|-------------------|-------------------|-------------------|-------------------|| 
                                                                                  | (x2) 
G|-------------------|-------------------|-------------------|-------------------|| 
D|-------------------|-------------------|-------------------|-------------------|| 
A|-------------------|-------------------|-------------------|-------------------|| 
E|--7-7-7-7-7-7-7-7--|--7-7-7-7-7-7-7-7--|--7-7-7-7-7-7-7-7--|--7-7-7-7-7-7-7-7--|| 


Bridge 
G|-------------------|-------------------|-------------------|-------------------|| 
D|-------------------|-------------------|-------------------|-------------------|| 
A|--5-5-5-5-5-5-5-5--|--5-5-5-5-5-5-5-5--|--4-4-4-4-4-4-4-4--|--7-7-7-7-7-7-7-7--|| 
E|-------------------|-------------------|-------------------|-------------------|| 
                                                                                  | (x2) 
G|-------------------|-------------------|-------------------|-------------------|| 
D|-------------------|-------------------|-------------------|-------------------|| 
A|-------------------|-------------------|-------------------|-------------------|| 
E|--7-7-7-7-7-7-7-7--|--7-7-7-7-7-7-7-7--|--7-7-7-7-7-7-7-7--|--7-7-7-7-7-7-7-7--|| 


Chorus 3 
G|-------------------|-------------------|-------------------|-------------------|| 
D|-------------------|-------------------|-------------------|-------------------|| 
A|--9-9-9-9-9-9-9-9--|--9-9-9-9-9-9-9-9--|--7-7-7-7-7-7-7-7--|--7-7-7-7-7-7-7-7--|| 
E|-------------------|-------------------|-------------------|-------------------|| 
                                                                                  | (x2) 
G|-------------------|-------------------|-------------------|-------------------|| 
D|-------------------|-------------------|-------------------|-------------------|| 
A|-------------------|-------------------|-------------------|-------------------|| 
E|--7-7-7-7-7-7-7-7--|--7-7-7-7-7-7-7-7--|--7-7-7-7-7-7-7-7--|--7-7-7-7-7-7-7-7--|| 

G|-------------------| 
D|-------------------| 
A|-------------------| 
E|--7----------------| 
		  

See also:

bass Deep Purple - Burn (ver. 2) bass Deep Purple - Smoke On The Water (ver. 3) bass Deep Purple - Strange kind of woman bass Deep Purple - Into The Fire bass Deep Purple - Burn Ver.(2) bass Deep Purple - Smoke On The Water
e-chords

Other versions:

bass Pink Floyd - Mother bass IDLES - Mother bass Guitar Hero - Mother (guitar Hero Ii)
auto scroll beats size up size down change color hide chords drawings
tab show chords e-chords YouTube Clip e-chords hide all tabs e-chords go to top tab

share