I Pixel

Sirenamente

I Pixel

bass

by  ALEXDERFERRI

save to print version add songbook text version e-mail correct tuner
chordsukulelecavacokeyboardtabbassdrumsharmonicaflute Guitar Pro
close

there isn't a video lesson for this song

chords

Sirenamente

	  		


G |-------|-------|-------|-------|-------|-------|-------|-------| 
D |-------|-------|-------|-------|-------|-------|-------|-------| 
A |--4L---|--4----|--2L---|--2----|-------|-------|--4L---|--4----| 
E |-------|-------|-------|-------|--2L---|--2----|-------|-------| 


----------------------------|----------------------------| 
----------------------------|----------------------------| 
--4--4--4--4--4--4--4--4----|--4--4--4--4--4--4--4--4----| 
----------------------------|----------------------------| 


----------------------------|----------------------------| 
----------------------------|----------------------------| 
--2--2--2--2--2--2--2--2----|--2--2--2--2--2--2--2--2----| 
----------------------------|----------------------------| 


----------------------------|----------------------------| 
----------------------------|----------------------------| 
----------------------------|----------------------------| 
--2--2--2--2--2--2--2--2----|--2--2--2--2--2--2--2--2----| 


----------------------------|----------------------------| 
----------------------------|----------------------------| 
--4--4--4--4--4--4--4--4----|--4--4--4--4--4--4--2--2----| 
----------------------------|----------------------------| 


----------------------------|----------------------------| 
----------------------------|----------------------------| 
--4--4--4--4--4--4--4--4----|--4--4--4--4--4--4--4--4----| 
----------------------------|----------------------------| 


----------------------------|----------------------------| 
----------------------------|----------------------------| 
--2--2--2--2--2--2--2--2----|--2--2--2--2--2--2--2--2----| 
----------------------------|----------------------------| 


----------------------------|----------------------------| 
----------------------------|----------------------------| 
----------------------------|----------------------------| 
--2--2--2--2--2--2--2--2----|--2--2--2--2--2--2--2--2----| 


----------------------------|----------------------------| 
----------------------------|----------------------------| 
--4--4--4--4--4--4--4--4----|--4--4--4--4--4--4--2--2----| 
----------------------------|----------------------------| 


----------------------------|----------------------------| 
----------------------------|----------------------------| 
--4--4--4--4--4--4--4--4----|--4--4--4--4--4--4--4--4----| 
----------------------------|----------------------------| 


----------------------------|----------------------------| 
----------------------------|----------------------------| 
--2--2--2--2--2--2--2--2----|--2--2--2--2--2--2--2--2----| 
----------------------------|----------------------------| 


----------------------------|----------------------------| 
----------------------------|----------------------------| 
----------------------------|----------------------------| 
--2--2--2--2--2--2--2--2----|--2--2--2--2--2--2--2--2----| 


----------------------------|--4s-6--6--6--6--4----------| 
----------------------------|--------------------6-------| 
--4--4--4--4--4--4--4--4----|-----------------------7----| 
----------------------------|----------------------------| 


----------------------------|----------------------------| 
----------------------------|----------------------------| 
--4--4--4--4--4--4--4--4----|--4--4--4--4--4--4--4--4----| 
----------------------------|----------------------------| 


----------------------------|----------------------------| 
----------------------------|--1--1--1--2L-2--2--1--1----| 
--------------------2--2----|----------------------------| 
--0--0--0--0--4--4----------|----------------------------| 


----------------------------|--------------4--4----------| 
----------------------------|--7--7--6--6--------6--6----| 
--4--4--4--4--4--4--4--4----|----------------------------| 
----------------------------|----------------------------| 


----------------------------|----------------------------|-------|-------|----| 
----------------------------|--1--1--1--2L-2--2--1--1----|-------|-------|----| 
--------------------2--2----|----------------------------|--4L---|--4----|----| 
--0--0--0--0--4--4----------|----------------------------|-------|-------|----| 


--3h-4-----------------------------------3-------------------------------------- 
-----------------------------------------------------------------------------4s- 
-------------------------------------------------------------------------------- 
-------------------------------------------------------------------------------- 


-----------------------|----------------------------| 
-----------------------|----------------------------| 
-----------------------|----------------------------| 
-----------------------|--2-----2--2--2--2--2--2----| 


----------------------------|----------------------------| 
----------------------------|----------------------------| 
----------------------------|--4--4--4--4--4--4--4--4----| 
--2--2--2--2--2--2--2--2----|----------------------------| 


----------------------------|----------------------------| 
----------------------------|----------------------------| 
--4--4--4--4--4--4--2--2----|--4--4--4--4--4--4--4--4----| 
----------------------------|----------------------------| 


----------------------------|----------------------------| 
----------------------------|----------------------------| 
--4--4--4--4--4--4--4--4----|--2--2--2--2--2--2--2--2----| 
----------------------------|----------------------------| 


----------------------------|----------------------------| 
----------------------------|----------------------------| 
--2--2--2--2--2--2--2--2----|----------------------------| 
----------------------------|--2--2--2--2--2--2--2--2----| 


----------------------------|----------------------------| 
----------------------------|----------------------------| 
----------------------------|--4--4--4--4--4--4--4--4----| 
--2--2--2--2--2--2--2--2----|----------------------------| 


----------------------------|----------------------------| 
----------------------------|----------------------------| 
--4--4--4--4--4--4--2--2----|--4--4--4--4--4--4--4--4----| 
----------------------------|----------------------------| 


----------------------------|----------------------------| 
----------------------------|----------------------------| 
--4--4--4--4--4--4--4--4----|--2--2--2--2--2--2--2--2----| 
----------------------------|----------------------------| 


----------------------------|----------------------------| 
----------------------------|----------------------------| 
--2--2--2--2--2--2--2--2----|----------------------------| 
----------------------------|--2--2--2--2--2--2--2--2----| 


----------------------------|----------------------------| 
----------------------------|----------------------------| 
----------------------------|--4--4--4--4--4--4--4--4----| 
--2--2--2--2--2--2--2--2----|----------------------------| 


--4s-6--6--6--6--4----------|----------------------------| 
--------------------6-------|----------------------------| 
-----------------------7----|--4--4--4--4--4--4--4--4----| 
----------------------------|----------------------------| 


----------------------------|----------------------------| 
----------------------------|----------------------------| 
--4--4--4--4--4--4--4--4----|--------------------2--2----| 
----------------------------|--0--0--0--0--4--4----------| 


----------------------------|----------------------------| 
--1--1--1--2L-2--2--1--1----|----------------------------| 
----------------------------|--4--4--4--4--4--4--4--4----| 
----------------------------|----------------------------| 


--------------4--4----------|----------------------------| 
--7--7--6--6--------6--6----|----------------------------| 
----------------------------|--------------------2--2----| 
----------------------------|--0--0--0--0--4--4----------| 


----------------------------|-------|----|----|----|-------|----|----|----| 
--1--1--1--2L-2--2--1--1----|-------|----|----|----|-------|----|----|----| 
----------------------------|--4----|----|----|----|--4----|----|----|----| 
----------------------------|-------|----|----|----|-------|----|----|----| 


-------|--14-------13-------11------|--9~---|--11-------9--------8-------| 
--11---|----------------------------|-------|----------------------------| 
-------|----------------------------|-------|----------------------------| 
-------|----------------------------|-------|----------------------------| 


-------|--14-------13-------11------|--9--------11-------13------| 
--11---|----------------------------|----------------------------| 
-------|----------------------------|----------------------------| 
-------|----------------------------|----------------------------| 


--8--------9--------11-----||-------|--14-------13-------11------|--9~---| 
--------------------------o||--11---|----------------------------|-------| 
--------------------------o||-------|----------------------------|-------| 
---------------------------||-------|----------------------------|-------| 


--11-------9--------8-------|-------|--14-------13-------11------| 
----------------------------|--11---|----------------------------| 
----------------------------|-------|----------------------------| 
----------------------------|-------|----------------------------| 


--9--------11-------13------|--8--------9--------11------|-------|-------|----| 
----------------------------|----------------------------|--11L--|--11---|----| 
----------------------------|----------------------------|-------|-------|----| 
----------------------------|----------------------------|-------|-------|----| 


----|----|----|----|----|----|| 
----|----|----|----|----|----|| 
----|----|----|----|----|----|| 
----|----|----|----|----|----|| 
		  

See also:

bass Deep Purple - Smoke On The Waterr bass Deep Purple - Knocking At Your Back Door bass Deep Purple - Space Truckin' bass Deep Purple - Burn Ver.(2) bass Deep Purple - Black Night bass Deep Purple - Ted The Mechanic
e-chords

Other versions:

bass I Pixel - Sirenamente
auto scroll beats size up size down change color hide chords drawings
tab show chords e-chords YouTube Clip e-chords hide all tabs e-chords go to top tab

share