Homeshake

Nankhatai

Homeshake

bass

by  LINEKERS

save to print version add songbook text version e-mail correct tuner
chordsukulelecavacokeyboardtabbassdrumsharmonicaflute Guitar Pro
close

there isn't a video lesson for this song

chords

Nankhatai

	  		
Intro 
G|--------------------|--------------------|--------------------|--------------------| 
D|--------------------|--------------------|--------------------|--------------------| 
A|--------------------|--------------------|--------------------|--------------------| 
E|-5------5--5------5-|-5------5--5------5-|-5------5--5------5-|-5------5--5------5-| 

Verse 
G|--------------------|--------------------|--------------------|--------------------| (x2) 
D|--------------------|--------------------|--------------------|--------------------| 
A|--------------------|--------------------|--------------------|--------------------| 
E|-5------5--5------5-|-5------5--5------5-|-3------3--3------3-|-3------3--3------3-| 

G|--------------------|------------------------4-| 
D|--------------------|-----------3/5--7-----6---| 
A|--------------------|--------3----------5------| 
E|-1------1--1------1-|-1------------------------| 

Solo 
G|--------------------|--------------------|--------------------|--------------------| (x2) 
D|--------------------|--------------------|--------------------|--------------------| 
A|--------------------|--------------------|--------------------|--------------------| 
E|-5------5--5------5-|-5------5--5------5-|-3------3--3------3-|-3------3--3------3-| 

G|--------------------|------------------------4-| 
D|--------------------|-----------3/5--7-----6---| 
A|--------------------|--------3----------5------| 
E|-1------1--1------1-|-1------------------------| 

Verse 
G|--------------------|--------------------|--------------------|--------------------| (x2) 
D|--------------------|--------------------|--------------------|--------------------| 
A|--------------------|--------------------|--------------------|--------------------| 
E|-5------5--5------5-|-5------5--5------5-|-3------3--3------3-|-3------3--3------3-| 

G|--------------------|------------------------4-| 
D|--------------------|-----------3/5--7-----6---| 
A|--------------------|--------3----------5------| 
E|-1------1--1------1-|-1------------------------| 

Solo 
G|--------------------|--------------------|--------------------|--------------------| (x2) 
D|--------------------|--------------------|--------------------|--------------------| 
A|--------------------|--------------------|--------------------|--------------------| 
E|-5------5--5------5-|-5------5--5------5-|-3------3--3------3-|-3------3--3------3-| 

G|--------------------|------------------------4-| 
D|--------------------|-----------3/5--7-----6---| 
A|--------------------|--------3----------5------| 
E|-1------1--1------1-|-1------------------------| 

Outro 
G|--------------------|--------------------|--------------------|--------------------| 
D|--------------------|--------------------|--------------------|--------------------| 
A|--------------------|--------------------|--------------------|--------------------| 
E|-5------5--5----1---|-5------5--5----1---|-5------5--5----1---|-5------5--5----1---| 

G|-------------------| 
D|-------------------| 
A|-------------------| 
E|-1-1----1-1---1-1-1| 


*************************** 

| / Slide up 

*************************** 
		  

See also:

bass Deep Purple - Burn bass Deep Purple - Child in time bass Deep Purple - Smoke On The Water bass Deep Purple - Lady Double Dealer bass Deep Purple - Fire Ball bass Deep Purple - Smoke On The Water (ver. 3)
e-chords

Other versions:

bass Homeshake - Nankhatai
auto scroll beats size up size down change color hide chords drawings
tab show chords e-chords YouTube Clip e-chords hide all tabs e-chords go to top tab

share