Homeshake

Hes Heating Up

Homeshake

bass

by  VICTBORGES

save to print version add songbook text version e-mail correct tuner
chordsukulelecavacokeyboardtabbassdrumsharmonicaflute Guitar Pro
close

there isn't a video lesson for this song

chords

Hes Heating Up

	  		Verse 
E|----------------|--4-----------------| 
A|----------------|--------------------| 
D|-----------2-2--|------2-2----2-2----| 
G|--2--5--2-------|--5------5-------5--| 

Pre-Chorus 
E|----------------|--4--------------|--------------| 
A|----------------|-----------------|--------------| 
D|-----------2-2--|------2-2----2-2-|--2-0---------| 
G|--2--5--2-------|---5------5------|-------3-2----| 

Chorus 
E|---------------------------------4-4------------| 
A|-----------------------------4------------------| 
D|--------------------5----2-----------2-0--------| 
G|---0----3----5--------------------------3-2-----| 

Last Chorus before Verse - It's also the last Chorus of the song 
E|----------------------------------6-----6/9--6--| 
A|-------------------------4-4----4---4-----------| 
D|-------------------5----------------------------| 
G|---0----3----5----------------------------------| 


*********************************** 

| /   Slide-up 

*********************************** 
		  

See also:

bass Deep Purple - Burn bass Deep Purple - Child in time bass Deep Purple - Smoke On The Water bass Deep Purple - Lady Double Dealer bass Deep Purple - Fire Ball bass Deep Purple - Smoke On The Water (ver. 3)
e-chords

Other versions:

bass Homeshake - Hes Heating Up
auto scroll beats size up size down change color hide chords drawings
tab show chords e-chords YouTube Clip e-chords hide all tabs e-chords go to top tab

share