Homeshake

Hello Welcome

Homeshake

bass

by  TERCMORAES

save to print version add songbook text version e-mail correct tuner
chordsukulelecavacokeyboardtabbassdrumsharmonicaflute Guitar Pro
close

there isn't a video lesson for this song

chords

Hello Welcome

	  		
Main Riff 
A|--------------------------------------------------| 
E|--------3--5--5b7r5--5b7r5--3b5r3--3b5r3--3/5--5--| 
C|--2--4--------------------------------------------| 
G|--------------------------------------------------| 

A|---------------------------------------------------| 
E|--------3--5--5b7r5--5b7r5--3b5r3--3b5r3--3---3h5--| 
C|--2--4--------------------------------------4------| 
G|---------------------------------------------------| 

A|---------------------------------------------------| 
E|--------3--5--5b7r5--5b7r5--3b5r3--3b5r3--3---3h5--| 
C|--2--4--------------------------------------4------| 
G|---------------------------------------------------| 

A|----------------------------------------------------------------| 
E|--------3--5--5b7r5--5b7r5--3b5r3--3b5r3--3---3h5---------------| 
C|--2--4--------------------------------------4-----2h4p2-h1\0/1--| 
G|----------------------------------------------------------------| 

A|------------------5--7--10--9--12b13--12--10--10------------------------| 
E|--------3--5b7-------------------------------------10h12----------------| 
C|--2--4------------------------------------------------------9h11--8h10--| 
G|------------------------------------------------------------------------| 



************************************ 

| r  Release 
| b  Bend 
| /  Slide up 
| h  Hammer-on 
| p  Pull-off 
| \  Slide down 

************************************ 
		  

See also:

bass Deep Purple - Burn bass Deep Purple - Child in time bass Deep Purple - Smoke On The Water bass Deep Purple - Lady Double Dealer bass Deep Purple - Fire Ball bass Deep Purple - Smoke On The Water (ver. 3)
e-chords

Other versions:

bass Homeshake - Hello Welcome
auto scroll beats size up size down change color hide chords drawings
tab show chords e-chords YouTube Clip e-chords hide all tabs e-chords go to top tab

share