Homeshake

Faded

Homeshake

bass

by  HEBEALMEIDA

save to print version add songbook text version e-mail correct tuner
chordsukulelecavacokeyboardtabbassdrumsharmonicaflute Guitar Pro
close

there isn't a video lesson for this song

chords

Faded

	  		
Intro / verse 1 / Pre-Chorus 
G|---------------------------------------| 
D|-------------10-------8-----------7-5--| 
A|----8----------------------------------| 
E|-10-----x-8------6-6------x-5-3--------| 

G|----------------------------------------| 
D|-------------10-----8--------7-5--------| 
A|----8---------------------------------8-| 
E|-10-----x-8------6-----5-3---------10---| 

Chorus 
G|-------7--------5--|------------------3-5-3---| 
D|-------------------|7--x-7-------3-5-------5--| 
A|-7--7-----5--5-----|--------5-7---------------| 
E|-------------------|--------------------------| 

G|-------7---------5----|-------------3------| 
D|--------------------7-|-x-7-------5------3-| 
A|-7--7-----5--5--------|-----5-7--------5---| 
E|----------------------|--------------------| 


verse 2 / Pre-Chorus 
G|--------------------------------| 
D|------10-------8-----------7-5--| 
A|--------------------------------| 
E|-x-8------6-6------x-5-3--------| 

G|---------------------------------------| 
D|-------------10-------8-----------7-5--| 
A|----8----------------------------------| 
E|-10-----x-8------6-6------x-5-3--------| 

G|------------------------|---------------------| 
D|-------------10-------8-|----------7-5--------| 
A|----8-------------------|-------------------8-| 
E|-10-----x-8------6-6----|--x-5-3---------10---| 


Chorus 
G|-------7--------5-----|---------------3-5-3---| 
D|--------------------7-|-x-7-------3-5-------5-| 
A|-7--7-----5--5--------|-----5-7---------------| 
E|----------------------|-----------------------| 


Bridge / Ad Lib 
G|-------7--------5-----|---------------3-5-3---| 
D|--------------------7-|-x-7-------3-5-------5-| 
A|-7--7-----5--5--------|-----5-7---------------| 
E|----------------------|-----------------------| 

G|-------7---------5-----------------3------| 
D|--------------------7--x-7-------5------3-| 
A|-7--7-----5--5-------------5-7--------5---| 
E|------------------------------------------| 

Outro 
G|--------------------------------| 
D|------10-------8-----------7-5--| 
A|--------------------------------| 
E|-x-8------6-6------x-5-3--------| 

G|---------------------------------------| 
D|-------------10-------8-----------7-5--| 
A|----8----------------------------------| 
E|-10-----x-8------6-6------x-5-3--------| 

G|-----------------------|----------------------| 
D|-------------10-------8|-----------7-5--------| 
A|----8------------------|--------------------8-| 
E|-10-----x-8------6-6---|---x-5-3---------10---| 

*********************************** 
|  x   Dead note 
*********************************** 
		  

See also:

bass Deep Purple - Burn bass Deep Purple - Child in time bass Deep Purple - Smoke On The Water bass Deep Purple - Lady Double Dealer bass Deep Purple - Fire Ball bass Deep Purple - Smoke On The Water (ver. 3)
e-chords

Other versions:

bass Homeshake - Faded
auto scroll beats size up size down change color hide chords drawings
tab show chords e-chords YouTube Clip e-chords hide all tabs e-chords go to top tab

share