HIM

home > HIM

Buried alive by love Bass Tab

HIM

Difficulty: nolevelnolevel

by deivcavalcanti

tuner correct add songbook print version text version save to e-mail
chordsukulelecavacokeyboardtabbassdrumsharmonicsflute Guitar Pro
chords

Buried alive by love

  		
g|----------------------| 
D|----------------------| 
A|----------------------| 
E|-300000030000000------|             



g|-----------------------------------------------| 
D|-----------------------------------------------| 
A|-----------3-3333333----------3-3333333--------| 
E|-0-0-000--------------0-0-000------------------|         

g|----| 
D|----| 
A|----| 
E|-5~-| 

g|----------------------------|   
D|----------------------------| 
A|----------------------------| 
E|-300000003000000-5~---------| 


g|-----------------------| 
D|-----------------------| 
A|-----------------------| 
E|-30000003000000--------| 



g|----------------| 
D|----------------| 
A|----------------| 
E|-5-------5-5-5--| 


g|------------------------------------------------------------------| 
D|------------------------------------------------------------------| 
A|-77777777-99999999-1010101010101010-1212121212121212--------------| 
E|------------------------------------------------------------------| 

g|----------------| 
D|----------------| 
A|----------------| 
E|-0000333000-----| 

g|------------------------------------------------------| 
D|------------------------------------------------------| 
A|-1212121212121212-1010101010101010-99999999-77777777--| 
E|------------------------------------------------------| 

g|-------------------------| 
D|-------------------------| 
A|-------------------------|   
E|-0-0-0-0-3-3-3-5-5-5-----|     



g|------| 
D|------| 
A|------| 
E|-55~--|         


g|---------------------------------| 
D|---------------------------------| 
A|---------------------------------| 
E|-5~------300000003000000---------| 

g|----| 
D|----| 
A|----| 
E|-5~-| 



g|------------------------------| 
D|------------------------------| 
A|------------------------------| 
E|-3000000030000000--5~---------| 

g|---------------------| 
D|---------------------| 
A|---------------------| 
E|------5~-----5-5-5---| 
	  

Search Paypal
auto scroll beats size up size down change color hide chords drawings
tab show chords e-chords YouTube Clip e-chords hide all tabs e-chords go to top tab