HIM

home > HIM

Behind The Crimson Door Bass Tab

HIM

Difficulty: nolevelnolevel

by deivcavalcanti

tuner correct add songbook print version text version save to e-mail
chordsukulelecavacokeyboardtabbassdrumsharmonicsflute Guitar Pro
chords

Behind The Crimson Door

  		


 Intro 
  Q=141 
 4/4 
  Gtr I 
  Wx7          H.      Q 
|------------|------------| 
|------------|---------0--| 
|------------|------------| 
|------------|------------| 


  $ 
  E E E E E E E E   E E E E E E Q    Q  Q  Q  Q    Q  Q  Q  Q 
|-----------------|----------------|-------------|-------------| 
|-0-0-0-0-0-0-0-0-|-0-0-0-0-0-0----|-7--5--------|-------------| 
|-----------------|----------------|-------8--7--|----8--7--5--| 
|-----------------|-------------1--|-------------|-8-----------| 


  E E E E E E E E   E E E E E E Q    Q  Q  Q  Q    Q  Q  Q  Q 
|-----------------|----------------|-------------|-------------|| 
|-0-0-0-0-0-0-0-0-|-0-0-0-0-0-0----|-7--5--------|-------------|| 
|-----------------|----------------|-------8--7--|----8--7--0--|| 
|-----------------|-------------1--|-------------|-8-----------|| 


 Verse 
  E E E E E E E E   E E E E E E E E   E E E E E E E E   E E E E E E E E 
|-----------------|-----------------|-----------------|-----------------| 
|-----------------|-----------------|-----------------|-----------------| 
|-0-0-0-0-0-0-0-0-|-0-0-0-0-0-0-0---|-----------------|---------------8-| 
|-----------------|---------------8-|-8-8-8-8-8-8-8-8-|-8-8-8-8-8-8-8---| 


  E E E E E E E E   E E E E E E E E   E E E E E E E E   E E E E E E Q 
|-----------------|-----------------|-----------------|----------------| 
|-----------------|-----------------|-----------------|----------------| 
|-8-8-8-8-8-8-8---|-----------------|-----------------|----------------| 
|---------------8-|-8-8-8-8-8-8-8-6-|-6-6-6-6-6-6-6-6-|-6-6-6-6-6-6-5--| 


  E E E E E E E E   E E E E E E E E   E E E E E E E E   E E E E E E E E 
|-----------------|-----------------|-----------------|-----------------| 
|-----------------|-----------------|-----------------|-----------------| 
|-0-0-0-0-0-0-0-0-|-0-0-0-0-0-0-0---|-----------------|---------------8-| 
|-----------------|---------------8-|-8-8-8-8-8-8-8-8-|-8-8-8-8-8-8-8---| 


  E E E E E E E E   E E E E E E E E   +Q   Q.   Q.     Q.   H     E 
|-----------------|-----------------|----------------|--------------| 
|-----------------|-----------------|----------------|--------------| 
|-8-8-8-8-8-8-8---|-----------------|----------------|--------------| 
|---------------8-|-8-8-8-8-8-8-8-6-|-(6)--6----6----|-6s==18\----6-| 


  +Q   Q  Q.   E    +Q.    E E E E E 
|----------------|-------------------|| 
|----------------|-----------------0-|| 
|----------------|-----------0-0-----|| 
|-(6)--6--6s==18-|-(18)\-------------|| 


 Chorus 
  +E  E E E E E E E   E E E E E E E E   E E E E E E E E   E E E E E E E E 
|-------------------|-----------------|-----------------|-----------------| 
|-(0)-0-0-0-0-0-0---|-----------------|-----------------|---------------0-| 
|-------------------|---------------3-|-3-3-3-3-3-3-3---|-----------------| 
|-----------------1-|-1-1-1-1-1-1-1---|---------------3-|-3-3-3-3-3-3-3---| 


  E E E E E E E E   E E E E E E E E   E E E E E E E E   E E E E E E Q 
|-----------------|-----------------|-----------------|----------------| 
|-0-0-0-0-0-0-0---|-----------------|-----------------|----------------| 
|-----------------|---------------3-|-3-3-3-3-3-3-3---|-------------1--| 
|---------------1-|-1-1-1-1-1-1-1---|---------------3-|-3-3-3-3-3-3----| 


  E E E E E E E E   +E  E E E E E Q    E E E E E E Q    E E E E E E Q 
|-----------------|------------------|----------------|----------------| 
|-----------------|---------------0--|-0-0-0-0-0-0-3--|-0-0-0-0---3----| 
|-1-1-1-1-1-1-1-3-|-(3)-3-3-3-3-3----|----------------|---------3------| 
|-----------------|------------------|----------------|-------------6--| 


                              D.S. 
  E E E E E E E E   E E E E E E Q 
|-----------------|----------------|| 
|-----------------|-------------0--|| 
|-----------------|----------------|| 
|-6-6-6-6-6-6-6-8-|-8-8-8-8-8-8----|| 


 Interlude 
  E E +Q.     Q.      +E  Q   E  E  Q  E 
|------------------|---------------------| 
|-0-0-(0)---/12----|-(12)-0--12-14-10--0-| 
|------------------|---------------------| 
|------------------|---------------------| 


  +Q   Q.     Q.      +E  Q   E  E  Q  E 
|------------------|---------------------| 
|-(0)--0----/12----|-(12)-0--12-14-10--0-| 
|------------------|---------------------| 
|------------------|---------------------| 


  +Q   Q.     Q.      +E  Q   E  E  Q  E 
|------------------|---------------------| 
|-(0)--0----/12----|-(12)-0--12-14-10--0-| 
|------------------|---------------------| 
|------------------|---------------------| 


  +Q   Q.     Q.      +E  Q   E  E  Q  E 
|------------------|---------------------| 
|-(0)--0----/12----|-(12)-0--12-14-10--0-| 
|------------------|---------------------| 
|------------------|---------------------| 


  E E E E E E E E   E E E E E E E E   E E E E E E E E   E E E E E E E E 
|-----------------|-----------------|-----------------|-----------------| 
|-0-0-0-0-0-0-0-0-|-0-0-0-0-0-0-0-0-|-0-0-0-0-0-0-0-0-|-0-0-0-0-0-0-0-0-| 
|-----------------|-----------------|-----------------|-----------------| 
|-----------------|-----------------|-----------------|-----------------| 


  E E E E E E E E   E E E E E E Q    Q  Q  Q  Q    Q  Q  Q.   E 
|-----------------|----------------|-------------|--------------|| 
|-0-0-0-0-0-0-0-0-|-0-0-0-0-0-0----|-7--5--------|--------------|| 
|-----------------|----------------|-------8--7--|----8--7----0-|| 
|-----------------|-------------1--|-------------|-8------------|| 


 Breakdown 
  +Q   Q.     Q.      +E  Q   E  E  Q  E 
|------------------|---------------------| 
|------------------|---------------------| 
|-(0)--0----/12----|-(12)-0--12-14-10--0-| 
|------------------|---------------------| 


  +Q   Q.     Q.      +E  Q   E  E  Q  E 
|------------------|---------------------| 
|------------------|---------------------| 
|-(0)--0----/12----|-(12)-0--12-14-10--0-| 
|------------------|---------------------| 


  +Q   Q.     Q.      +E  Q   E  E  Q  E 
|------------------|---------------------| 
|------------------|---------------------| 
|-(0)--0----/12----|-(12)-0--12-14-10--0-| 
|------------------|---------------------| 


  +Q   Q.     Q.      +E    E  E  E  +E   E  E E 
|------------------|-----------------------------|| 
|------------------|-------------14-(14)-------0-|| 
|-(0)--0----/12----|-(12)-----15---------17-15---|| 
|------------------|------/17--------------------|| 


 Chorus 
  E E E E E E E E   E E E E E E E E   E E E E E E E E   E E E E E E E E 
|-----------------|-----------------|-----------------|-----------------| 
|-0-0-0-0-0-0-0---|-----------------|-----------------|---------------0-| 
|-----------------|---------------3-|-3-3-3-3-3-3-3---|-----------------| 
|---------------1-|-1-1-1-1-1-1-1---|---------------3-|-3-3-3-3-3-3-3---| 


  +E  E E E E E E E   E E E E E E E E   E E E E E E E E   E E E E E E Q 
|-------------------|-----------------|-----------------|----------------| 
|-(0)-0-0-0-0-0-0---|-----------------|-----------------|----------------| 
|-------------------|---------------3-|-3-3-3-3-3-3-3---|-------------1--| 
|-----------------1-|-1-1-1-1-1-1-1---|---------------3-|-3-3-3-3-3-3----| 


  E E E E E E E E   +E  E E E E E Q    E E E E E E Q    E E E E E E Q 
|-----------------|------------------|----------------|----------------| 
|-----------------|---------------0--|-0-0-0-0-0-0-3--|-0-0-0-0--------| 
|-1-1-1-1-1-1-1-3-|-(3)-3-3-3-3-3----|----------------|-----------8----| 
|-----------------|------------------|----------------|---------8---6--| 


  E E E E E E E E   E E E E E E E E 
|-----------------|-----------------| 
|-----------------|---------------0-| 
|-----------------|-----------------| 
|-6-6-6-6-6-6-6-8-|-8-8-8-8-8-8-8---| 


  E E E E E E E E   E E E E E E E E   E E E E E E E E   E E E E E E E E 
|-----------------|-----------------|-----------------|-----------------| 
|-0-0-0-0-0-0-0---|-----------------|-----------------|---------------0-| 
|-----------------|---------------3-|-3-3-3-3-3-3-3---|-----------------| 
|---------------1-|-1-1-1-1-1-1-1---|---------------3-|-3-3-3-3-3-3-3---| 


  E E E E E E E E   E E E E E E E E   E E E E E E E E   E E E E E E Q 
|-----------------|-----------------|-----------------|----------------| 
|-0-0-0-0-0-0-0---|-----------------|-----------------|----------------| 
|-----------------|---------------3-|-3-3-3-3-3-3-3---|-------------1--| 
|---------------1-|-1-1-1-1-1-1-1---|---------------3-|-3-3-3-3-3-3----| 


  E E E E E E E E   +E  E E E E E Q    E E E E E E Q    E E E E E E Q 
|-----------------|------------------|----------------|----------------| 
|-----------------|---------------0--|-0-0-0-0-0-0-3--|-0-0-0-0---3----| 
|-1-1-1-1-1-1-1-3-|-(3)-3-3-3-3-3----|----------------|---------3------| 
|-----------------|------------------|----------------|-------------6--| 


  E E E E E E E E   E E E E E E Q 
|-----------------|----------------|| 
|-----------------|-------------0--|| 
|-----------------|----------------|| 
|-6-6-6-6-6-6-6-8-|-8-8-8-8-8-8----|| 


   Outro 
    E E E E E E E E   E E E E E E Q    Q  Q  Q  Q    Q  Q  Q  Q 
||------------------|----------------|-------------|--------------| 
||o-0-0-0-0-0-0-0-0-|-0-0-0-0-0-0----|-7--5--------|----------0---| 
||o-----------------|----------------|-------8--7--|----8--7------| 
||------------------|-------------1--|-------------|-8------------| 


  E E E E E E E E   E E E E E E Q 
|-----------------|----------------| 
|-0-0-0-0-0-0-0-0-|-0-0-0-0-0-0----| 
|-----------------|----------------| 
|-----------------|-------------1--| 


  Q  Q  Q  Q    Q  Q  Q   Q       E  Q.   H 
|-------------|---------------||---------------*| 
|-7--5--------|--------------o||---------------*| 
|-------8--7--|----8--7------o||---------------*| 
|-------------|-8--------10---||-10-10\--------*| 

 
	  

Search Paypal
auto scroll beats size up size down change color hide chords drawings
tab show chords e-chords YouTube Clip e-chords hide all tabs e-chords go to top tab