HIM

home > HIM

And Love Said No Bass Tab

HIM

Difficulty: nolevelnolevel

by VELHO

tuner correct add songbook print version text version save to e-mail
chordsukulelecavacokeyboardtabbassdrumsharmonicsflute Guitar Pro
chords

And Love Said No

  		Intro/Chorus 
|-------| 
|-------| 
|-------| 
|--4-4--| x1 

|-------------------------------------------| 
|-------------------------------------------| 
|---------------------3-3-333---------------| 
|--2-2-222-0-00-0000---------5-55--4-4------| x2 

Verse 
|----------------------------------------------| 
|-------45-------------------------45----------| 
|----77----0252---77-5--0252---77----0252------| 
|--2-------------2-----5------2----------------| x1 

|------------| 
|------------| 
|--0--2-3----| 
|---------4--| x1 

|----------------------------------------------| 
|-------45-------------------------45----------| 
|----77----0252---77-5--0252---77----0252------| 
|--2-------------2-----5------2----------------| x1 

|--------------------------| 
|--------------------------| 
|--0--2-3---0--2-3---------| 
|---------4--------4-4-----| x1 

Intro/Chorus 
|-------------------------------------------| 
|-------------------------------------------| 
|---------------------3-3-333---------------| 
|--2-2-222-0-00-0000---------5-55--4-4------| x2 

|-------------------------------------------| 
|-------------------------------------------| 
|---------------------3-3-333---------------| 
|--2-2-222-4-44-4444---------5-55--4-4------| x1 

|------------------------------------------| 
|------------------------------------------| 
|--------------------3-3-333---------------| 
|--2-2-222-4-444-44---------5-55--4-4------| x1 

Verse 
|----------------------------------------------| 
|-------45-------------------------45----------| 
|----77----0252---77-5--0252---77----0252------| 
|--2-------------2-----5------2----------------| x1 

|------------| 
|------------| 
|--0--2-3----| 
|---------4--| x1 

|----------------------------------------------| 
|-------45-------------------------45----------| 
|----77----0252---77-5--0252---77----0252------| 
|--2-------------2-----5------2----------------| x1 

|--------------------------| 
|--------------------------| 
|--0--2-3---0--2-3---------| 
|---------4--------4-4-----| x1 

Intro/Chorus 
|-------------------------------------------| 
|-------------------------------------------| 
|---------------------3-3-333---------------| 
|--2-2-222-0-00-0000---------5-55--4-4------| x2 

|-------------------------------------------| 
|-------------------------------------------| 
|---------------------3-3-333---------------| 
|--2-2-222-4-44-4444---------5-55--4-4------| x1 

|------------------------------------------| 
|------------------------------------------| 
|--------------------3-3-333---------------| 
|--2-2-222-4-444-44---------5-55--4-4------| x1 

..go right into bridge: 
|--------------------------------------------| 
|--------------------------------------------| 
|----------------------------------0-00-3----| 
|--5-4-2-2--5-4-2-2--5-4-2-2--5-4------------| x2 

|--------------| 
|--------------| 
|--------------| 
|--5-4-2~~-----| x1 

Verse 2 
|------------------------------------------| 
|------------------------------------------| 
|----77-5--0252---77-5--0252---77-5--------| 
|--2------5------2-----5------2------5-----| x1 

|-----------------------| 
|-----------------------| 
|--0--2-3---0--2-3------| 
|---------4--------4-4--| x1 

Rest 

Intro/Chorus 
|--------------------------------| 
|--------------------------------| 
|------------3-3-333-------------| 
|--0-00-0000--------5-55-4-4-----| x1 

|----------------------------------------| 
|----------------------------------------| 
|--------------------3-3-333-------------| 
|--2-2-222-0-00-0000--------5-55-4-4-----| x1 

|------------------------------------------| 
|------------------------------------------| 
|---------------------3-3-333--------------| 
|--2-2-222-4-44-4444---------5-55-4-4------| x1 

|------------------------------------| 
|------------------------------------| 
|-------------------3-3-333----------| 
|--2-2-222-4-444-44--------5-55------| x1 

|--------------------| 
|--------------------| 
|--3-3-333-----------| 
|----------5-55-4-4--| x1 

|---------------------------| x1 
|---------------------------| 
|--3-3-333------------------| 
|----------5-55-4-4-2~------| 
	  

Search Paypal
auto scroll beats size up size down change color hide chords drawings
tab show chords e-chords YouTube Clip e-chords hide all tabs e-chords go to top tab