Helloween

home > Helloween

Ride the sky Bass Tab

Helloween

Difficulty: nolevelnolevel

by eduardo%5Flyvio

tuner correct add songbook print version text version save to e-mail
chordsukulelecavacokeyboardtabbassdrumsharmonicsflute Guitar Pro
chords

Ride the sky

Year: 1986 - Album: Singles Box Set 1985-1992

(Kai Hansen)

  		
Tuning: E A D G  
  
Intro.  
  
------|-------------|------------------|-------------|----------|--  
------|-------------|------------------|-------------|----------|--  
------|------5-4----|--------5-4-------|------5-4----|--5-4-5/7-|--  
--2---|--5-4------2-|--5-4-5-----5---2-|--5-4------2-|----------|--  
                                                                                
Fast Intro   
  
---------------------------------------------------------------------  
---------------------------------------------------------------------  
-------------------------------------5-4-----------------------------  
0-2-2-2-0-2-2-2-0-2-2-2-0-2-2-2--5-4-----0-2-2-2-0-2-2-2-0-2-2-2-0222  
                                                                                
  
---------------------------------------------------------------------  
---------------------------------------------------------------------  
------5-4----------------------------------------5-4-----------------  
5-4-5-----5--0-2-2-2-0-2-2-2-0-2-2-2-0-2-2-2-5-4-----0-2-2-2-0-2-2202  
                                                                                
  
G----------------------|---  
D----------------------|---  
A--------------5-4-5/7-|---  
E-2-2-0-2-2-2----------|---  
                                                                                
Vocals  
  
---------------------------------------------------------------------  
---------------------------------------------------------------------  
--------------------------------------5-4----------------------------  
0222-0-2-2-2-0-2-2-2-0-2-2-2-0-2-2-2-------0-2-2-2-0-2-2-2-0-2-2-2022  
                                                                                
  
  
  
  
G---------------------|---  
D---------------------|---  
A---------------5-4-5-|---  
E-2--2-2--5-4-5-------|---  
                                                                                
Bridge  
  
-------------------------------------6-9-7-6-------6-9-7-6--------  
----6-9-----6-9----6-9----6-9------7-------------7-------------6-9  
7-7-----7-7----7-7----7-7------9-9-----------9-9-----------7-7----  
------------------------------------------------------------------  
                                                                                
  
G-----------------------------------------9-7-6---7-6---6--|---  
D-------6-9-----6-9-----6-9---------------------9-----9----|---  
A---7-7-----7-7-----7-7------4-4-4-4-4-4-------------------|---  
E----------------------------------------------------------|---  
                                                                                
Bridge II  
  
---------------------------------------------------------------------  
---------------------------------------------------------------------  
5-5-5-5-5-5-5-5-4-4-------------------7-7-7-7-7-7-7-7-5-5-4-4-4-4-444  
-------------------7-7-7-7-7-7-7-7-5-5-------------------------------  
                                                                                
  
------------------------------------------------------------6-7-6---  
--------------------------------------------------------7-9------9-7  
4---9-9-9-9-9-9-9-9-9-7-7-5-5-5-5-5-5-5-5---4-4-4-4-4-4-------------  
-7-7-------------------------------------7-7------------------------  
                                                                                
Chorus.  
  
--------------------------------------------------------------------  
--------------------------------------------------------------------  
22-24-4-4-4-4-4-4-4-4-4-2-2-2h4-4-4-4-4-4-4-4-4-4-4-4-4-4-42-2-2-2-2  
--------------------------------------------------------------------  
                                                                                
  
G----------------------------------------------|---  
D----------------------------------------------|---  
A-2-2-2-----------------2h4-4-4-4-4-4-4-4--2---|---  
E-------4-4-4-4-4-4-4-4------------------------|---  
                                                                                
  
Repeat Fast Intro, Vocals, Bridge, Bridge II, Vocals and then:   
  
2X.  
-----------------------------------------------------------------  
--------------------------------------------------------11-9-7-6-  
-----------------------------------------------------------------  
4-4-4-4-4-4-4-4-4-5-5-5-5-5-5-5-5-5-5-7-7-7-7-7-7-7-7-7----------  
                                                                                
Solo.  
  
------------------------------------------------------------------  
------------------------------------------------------------------  
77777777-7-7-7-7-7-7-7-7-7-7-7-7-2-2-2-2-2-2-2-2-2-2-2-2-2-2-2-7-7  
------------------------------------------------------------------  
                                                                                
  
---------------------------------------------------------------------------  
---------------------------------------------------------------------------  
7-7-7-7-7-7-7-7-7-7-7-2-2-2-2-2-2-2-2-2-2-2-2-2-2-2-3-3-3-3-3-3-3-3-5-5-5-5  
---------------------------------------------------------------------------  
              
  
                                                                    
  
--------------------------------------------------------------------------  
---------5-5-5-5-5-5-5-4-4-4-4-4-4-4-4-4-4-4-4-4-4-4-4-4-4-2-2-2-2-2-2-2-2  
5-5-5-5-5-----------------------------------------------------------------  
--------------------------------------------------------------------------  
                                                                                
  
G---------------|---  
D-2-2-2-2-2/5-4-|---  
A---------------|---  
E---------------|---  
                                                                                
  
G-----------|-------|-----|-----|------------------------------------------||--  
D-----------|-------|-----|-----|------------------------------------------||--  
A---7---7-7-|-2-5-7-|-7-7-|-2-5-|--7-7-7-7-7-7-7-7-7-7-7-3-3-3-3-3-2-5-----||--  
E-----------|-------|-----|-----|------------------------------------------||--  
                                                                                
  
G---------------------------------------------||---  
D---------------------------------------------||---  
A---0-0-0-0-0-0-0-0-0-0-0-0-0-----------------||---  
E-----------------------------1-1-1-1-0-0-3-3-||---  
                                                                                
  
G------------------------------------------------------------------------------  
D------------------------------------------------------------------------------  
A----2-2-2-2-2-2-2-2-2-2-2-2-2-2-2-2-2-2-2-2-2-2-2-2-2-2-2--7-7-7-7-7-7-7-7----  
E------------------------------------------------------------------------------  
                                                                                
  
G------------------------------------------------------------------------------  
D------------------------------------------------------------------------------  
A-7-7-7-7--7-7-7-7-7-7--7-7-7-7-7-7--7-7-7-7-7-7--2-2---2-2-2-2-2--2-2-2-2-2---  
E------------------------------------------------------------------------------  
                                                                                
  
G------------------------------------|---  
D------------------------------------|---  
A-2-2-2-2-2-2--2-2-2-2--2-2-2-2-2-2--|---  
E------------------------------------|---  
                                                                                
G------------------------------------------||--  
D------------------------------------------||--  
A--7-7-7-7-7-7-7-7-7-7-7-3-3-3-3-3-2-5-----||--  
E------------------------------------------||--  
  
G-------------------------------------||---  
D-------------------------------------||---  
A---9-9-9-9-9-9-9-9-9-5-5-5-5-5-5-4-7-||---  
E-------------------------------------||---  
                                                                                
  
Then repeat Bridge II and Chorus.  
  
  
  


	  

Search Paypal
auto scroll beats size up size down change color hide chords drawings
tab show chords e-chords YouTube Clip e-chords hide all tabs e-chords go to top tab