Headstones

Do That Thing

Headstones

bass

by  GUSTSILVA

save to print version add songbook text version e-mail correct tuner
chordsukulelecavacokeyboardtabbassdrumsharmonicaflute Guitar Pro
close

there isn't a video lesson for this song

chords

Do That Thing

	  		BAND: Headstones 
TITLE: Do That Thing 
ALBUM: Smile And Wave 
TABBED BY: [email protected] 

Intro 

G|---|-----------------|-----------------|-----------------|-----------------| 
D|---|-----------------|-----------------|-----------------|-----------------| 
A|-3-|-------3-------3-|-------3-------3-|-------3-------3-|-------3-------3-| 
E|---|-5-------5-------|-3-------3-------|-5-------5-------|-3-------3-------| 
   &   1 & 2 & 3 & 4 &   1 & 2 & 3 & 4 &   1 & 2 & 3 & 4 &   1 & 2 & 3 & 4 & 

verse 1 

  "Man..." 
G|---------------------------------|------------------------------------| 
D|---------------------------------|------------------------------------| 
A|-------------3---------------3---|-------------3--/10------10-9-10-11-| 
E|-5---------------5---------------|-3----------------------------------| 
   1 e & a 2 e & a 3 e & a 4 e & a   1 e & a 2 e & a 3 e & a 4  e  &  a 

G|---------------------------------|---------------------------------| 
D|---------------------------------|---------------------------------| 
A|-12\---------3---------------3---|-------------3-------------------| 
E|-----------------5---------------|-3---------------3---------3-3-3-| 
   1 e & a 2 e & a 3 e & a 4 e & a   1 e & a 2 e & a 3 e & a 4 e & a 

Pre-Chorus 

  "Same song..." 
G|-----------------|-----------------|-----------------|-----------------| 
D|-----------------|-----------------|-----------------|-----------------| 
A|-5---------------|-3---------------|-5---------------|-3---------------| 
E|---------5-------|---------3-------|---------5-------|---------3-------| 
   1 & 2 & 3 & 4 &   1 & 2 & 3 & 4 &   1 & 2 & 3 & 4 &   1 & 2 & 3 & 4 & 

  "Can't get to..." 
G|-----------------|-----------------|-----------------|-----------------| 
D|-----------------|-----------------|-----------------|-----------------| 
A|-3-3-3-3---------|-5-5-5-5-5-5-5-5-|-3-3-3-3---------|-5-5-5-5-5-5-5-5-| 
E|---------3-3-3-3-|-----------------|---------3-3-3-3-|-----------------| 
   1 & 2 & 3 & 4 &   1 & 2 & 3 & 4 &   1 & 2 & 3 & 4 &   1 & 2 & 3 & 4 & 

G|-----------------|-----------------|-----------------|-----------------| 
D|-----------------|-----------------|-----------------|-----------------| 
A|-3-3-3-3---------|-5-5-5-5-5-5-5-5-|-3-3-3-3---------|-5-5-5-5-5-5-3---| 
E|---------3-3-3-3-|-----------------|---------3-3-3-3-|-----------------| 
   1 & 2 & 3 & 4 &   1 & 2 & 3 & 4 &   1 & 2 & 3 & 4 &   1 & 2 & 3 & 4 & 

verse 2 

G|---------------------------------|---------------------------------| 
D|---------------------------------|---------------------------------| 
A|-------------3---------------3---|-------------3---------------3---| 
E|-5---------------5---------------|-3---------------3---------------| 
   1 e & a 2 e & a 3 e & a 4 e & a   1 e & a 2 e & a 3 e & a 4 e & a 

G|---------------------------------|---------------------------------| 
D|---------------------------------|---------------------------------| 
A|-------------3---------------3---|-------------3-------------------| 
E|-5---------------5---------------|-3---------------3---------3-3-3-| 
   1 e & a 2 e & a 3 e & a 4 e & a   1 e & a 2 e & a 3 e & a 4 e & a 

Pre-Chorus 

  "Same song..." 
G|-----------------|-----------------|-----------------|-----------------| 
D|-----------------|-----------------|-----------------|-----------------| 
A|-5---------------|-3---------------|-5---------------|-3---------------| 
E|---------5-------|---------3-------|---------5-------|---------3-------| 
   1 & 2 & 3 & 4 &   1 & 2 & 3 & 4 &   1 & 2 & 3 & 4 &   1 & 2 & 3 & 4 & 

  "Can't get to..." 
G|-----------------|-----------------|-----------------|-----------------| 
D|-----------------|-----------------|-----------------|-----------------| 
A|-3-3-3-3---------|-5-5-5-5-5-5-5-5-|-3-3-3-3---------|-5-5-5-5-5-5-5-5-| 
E|---------3-3-3-3-|-----------------|---------3-3-3-3-|-----------------| 
   1 & 2 & 3 & 4 &   1 & 2 & 3 & 4 &   1 & 2 & 3 & 4 &   1 & 2 & 3 & 4 & 

G|-----------------|-----------------|-----------------|-----------------| 
D|-----------------|-----------------|-----------------|-----------------| 
A|-3-3-3-3---------|-5-5-5-5-5-5-5-5-|-3-3-3-3---------|-5-5-5-5-5---0-2-| 
E|---------3-3-3-3-|-----------------|---------3-3-3-3-|-----------3-----| 
   1 & 2 & 3 & 4 &   1 & 2 & 3 & 4 &   1 & 2 & 3 & 4 &   1 & 2 & 3 & 4 & 

Chorus 

G|---------0-------|-----0-1-2-1-0---|---------0-------|-----0-1-2-1-0---| 
D|---2-3-4---4-3-2-|-0-4-----------4-|---2-3-4---4-3-2-|-0-4-----------4-| 
A|-3---------------|-----------------|-3---------------|-----------------| 
E|-----------------|-----------------|-----------------|-----------------| 
   1 & 2 & 3 & 4 &   1 & 2 & 3 & 4 &   1 & 2 & 3 & 4 &   1 & 2 & 3 & 4 & 

G|---------0-------|-----0-1-2-1-0---|---------0-------|-----0-1-2-1-----| 
D|---2-3-4---4-3-2-|-0-4-----------4-|---2-3-4---4-3-2-|-0-4-------------| 
A|-3---------------|-----------------|-3---------------|---------------3-| 
E|-----------------|-----------------|-----------------|-----------------| 
   1 & 2 & 3 & 4 &   1 & 2 & 3 & 4 &   1 & 2 & 3 & 4 &   1 & 2 & 3 & 4 & 

Instrumental 

G|---------------------------------|---------------------------------| 
D|---------------------------------|---------------------------------| 
A|-------------3---------------3---|-------------3---------------3---| 
E|-5---------------5---------------|-3---------------3---------------| 
   1 e & a 2 e & a 3 e & a 4 e & a   1 e & a 2 e & a 3 e & a 4 e & a 

G|---------------------------------|---------------------------------| 
D|---------------------------------|---------------------------------| 
A|-------------3---------------3---|-------------3---------------3---| 
E|-5---------------5---------------|-3---------------3---------------| 
   1 e & a 2 e & a 3 e & a 4 e & a   1 e & a 2 e & a 3 e & a 4 e & a 

verse 3 

  "Man..." 
G|---------------------------------|---------------------------------| 
D|---------------------------------|---------------------------------| 
A|-------------3---------------3---|-------------3---------------3---| 
E|-5---------------5---------------|-3---------------3---------------| 
   1 e & a 2 e & a 3 e & a 4 e & a   1 e & a 2 e & a 3 e & a 4 e & a 

G|---------------------------------|---------------------------------| 
D|---------------------------------|---------------------------------| 
A|-------------3---------------3---|-------------3-------------------| 
E|-5---------------5---------------|-3---------------3---------3-3-3-| 
   1 e & a 2 e & a 3 e & a 4 e & a   1 e & a 2 e & a 3 e & a 4 e & a 

Pre-Chorus 

  "Same song..." 
G|-----------------|-----------------|-----------------| 
D|-----------------|-----------------|-----------------| 
A|-5---------------|-3---------------|-5---------------| 
E|---------5-------|---------3-------|---------5-------| 
   1 & 2 & 3 & 4 &   1 & 2 & 3 & 4 &   1 & 2 & 3 & 4 & 

  "Can't get to..." 
G|---------0-------|-----0-1-2-1-0---|---------0-------|-----0-1-2-1-0---| 
D|---2-3-4---4-3-2-|-0-4-----------4-|---2-3-4---4-3-2-|-0-4-----------4-| 
A|-3---------------|-----------------|-3---------------|-----------------| 
E|-----------------|-----------------|-----------------|-----------------| 
   1 & 2 & 3 & 4 &   1 & 2 & 3 & 4 &   1 & 2 & 3 & 4 &   1 & 2 & 3 & 4 & 

G|---------0-------|-----0-1-2-1-0---|---------0-------|-----0-1-2--/5-7-| 
D|---2-3-4---4-3-2-|-0-4-----------4-|---2-3-4---4-3-2-|-0-4-------------| 
A|-3---------------|-----------------|-3---------------|-----------------| 
E|-----------------|-----------------|-----------------|-----------------| 
   1 & 2 & 3 & 4 &   1 & 2 & 3 & 4 &   1 & 2 & 3 & 4 &   1 & 2 & 3 & 4 & 

Chorus 

G|----9--10-11-12-11-10----|----11-12-13-14-13-12----| 
D|-10-------------------9--|-12-------------------12-| 
A|-------------------------|-------------------------| 
E|-------------------------|-------------------------| 
   1  &  2  &  3  &  4  &    1  &  2  &  3  &  4  &  

G|----9--10-11-12-11-10----|----11-12-13-14-13-12----| 
D|-10-------------------9--|-12-------------------12-| 
A|-------------------------|-------------------------| 
E|-------------------------|-------------------------| 
   1  &  2  &  3  &  4  &    1  &  2  &  3  &  4  &  

G|----9--10-11-12-11-10----|----11-12-13-14-13-12----| 
D|-10-------------------9--|-12-------------------12-| 
A|-------------------------|-------------------------| 
E|-------------------------|-------------------------| 
   1  &  2  &  3  &  4  &    1  &  2  &  3  &  4  &  

G|----9--10-11-12-11-10----|----11-12-13-14-16-17-17-| 
D|-10-------------------9--|-12----------------------| 
A|-------------------------|-------------------------| 
E|-------------------------|-------------------------| 
   1  &  2  &  3  &  4  &    1  &  2  &  3  &  4  &  

Bass Solo 

                   |---3---| |---3---|  
G|-17--17--16-16---14-14-14--12-12-12-|-11--9---------------------------| 
D|------------------------------------|---------12--10--9---------------| 
A|------------------------------------|---------------------12--10--9---| 
E|------------------------------------|---------------------------------| 
   1 e & a 2 e & a 3  e & a  4 e & a    1 e & a 2 e & a 3 e & a 4 e & a 

G|---------------------------------|---------------------9---7--/11--| 
D|----/14--12--10--9---------------|-----7---5---9---7---------------| 
A|-10------------------12--10--9---|-5-------------------------------| 
E|---------------------------------|---------------------------------| 
   1 e & a 2 e & a 3 e & a 4 e & a   1 e & a 2 e & a 3 e & a 4 e & a 

G|-12--12--11--9---11--12--14--16--|-17--17--16--14--12--14--11------| 
D|---------------------------------|-----------------------------12--| 
A|---------------------------------|---------------------------------| 
E|---------------------------------|---------------------------------| 
   1 e & a 2 e & a 3 e & a 4 e & a   1 e & a 2 e & a 3 e & a 4 e & a 

G|-12--11--------------------------|---------------------------------| 
D|---------12--10--9---------------|-0---12--10----------------------| 
A|---------------------12--10--9---|-------------12--10--9---3-------| 
E|---------------------------------|---------------------------------| 
   1 e & a 2 e & a 3 e & a 4 e & a   1 e & a 2 e & a 3 e & a 4 e & a 

G|---------------------------------| 
D|---------------------------------| 
A|-0-------------------------------| 
E|---------------------------------| 
   1 e & a 2 e & a 3 e & a 4 e & a 

*********************************** 

| --3--   Triplet 
| /         Slide-up 
| \         Slide-down 

*********************************** 
		  

See also:

bass Deftones - Change bass The Ataris - Boys Of Summer bass Face To Face - Blind bass Dio - Holy Diver bass Gary Moore - Still got the Blues bass Children Of Bodom - Every Time I Die
e-chords

Other versions:

bass Headstones - Do That Thing
auto scroll beats size up size down change color hide chords drawings
tab show chords e-chords YouTube Clip e-chords hide all tabs e-chords go to top tab

share