Guns N' Roses

Rocket Queen

Guns N' Roses

bass Advanced advanced

save to print version add songbook text version e-mail correct tuner
chordsukulelecavacokeyboardtabbassdrumsharmonicaflute Guitar Pro
close

there isn't a video lesson for this song

chords

Rocket Queen

Year: 1987 - Album: Appetite For Destruction

(Guns N' Roses)

	  		


Guns N’ Roses “” from Appetite for Destruction
Tune down ½
Bassist: Duff McKagan

Tabbed by baronradon86
Visit www.chophouserecords.com!


G|------------|-----------|--------------|----------|--------------|
D|------2-2h4-|-----------|--------2-2h4-|----------|--424---421h2-|
A|------------|-----------|--------------|----------|--------------|
E|------------|-0-2-------|-0-2----------|-0-2------|-2----2-------|

G|---------------------|----------------------|---------------------|
D|---------------------|----------------------|---------------------|
A|-----0h1-----0h1p0h1-|-----0h1------0h1p0h1-|-----0h1-----0h1p0h1-|
E|-0-2-----0-2---------|-0-2-----0-02---------|-0-2-----0-2---------|

G|----------------------|--------------------|----------------------|
D|--------------4--2h4--|--------------------|----------------------|
A|-----0h1--------------|-----0h1----0h1p0h1-|-----0h1------0h1p0h1-|
E|-0-2-----0-02---------|-0-2-----0-2--------|-0-2-----0-02---------|

G|---------------------|----------------------|---------------------|
D|---------------------|---------------2-3-4--|---------------------|
A|-----0h1-----0h1p0h1-|-----0h1--------------|-----0h1-----0h1p0h1-|
E|-0-2-----0-2---------|-0-2-----0-02---------|-0-2-----0-2---------|

G|---------------------|----------------------|---------------------|
D|---------------------|----------------------|---------------------|
A|-----0h1-----0h1p0h1-|-----0h1------0h1p0h1-|-----0h1-----0h1p0h1-|
E|-0-2-----0-2---------|-0-2-----0-02---------|-0-2-----0-2---------|

G|----------------------|--------------------|---------------------|
D|----------------------|--------------4—2h4-|---------------------|
A|-----0h1------0h1p0h1-|-----0h1------------|-----0h1-----0h1p0h1-|
E|-0-2-----0-02---------|-0-2-----0-02-------|-0-2-----0-02--------|

G|--------------|
D|--------------|
A|-----0h1------|
E|-0-2-----2p0--|

Verse 1

G|---------------------|----------------------|---------------------|
D|---------------------|----------------------|---------------------|
A|-----0h1-----0h1p0h1-|-----0h1------0h1p0h1-|-----0h1-----0h1p0h1-|
E|-0-2-----0-2---------|-0-2-----0-02---------|-0-2-----0-2---------|

G|--------------------|---------------------|---------------------|
D|--------------------|-----0h1-----0h1p0h1-|-----0h1-----0h1p0h1-|
A|-----0h1------------|-0-2-----0-2---------|-0-2-----0-2---------|
E|-0-2-----0-2-3-4----|---------------------|---------------------|

G|---------------------|----------------------|
D|-----2h3-----2h3p2h3-|-----2h3p2h3-22222222-|
A|-2-4-----2-4---------|-2-4------------------|
E|---------------------|----------------------|

Chorus 1

G|--------------------|--------------|-------------------|
D|--------------------|---2----2-2-2-|-------------------|
A|-2-0----------------|------2-------|-0---2-------------|
E|-----2---2-02-2-2h4-|-0------------|---------0---2-022-|

G|----------------------|--------------|-------------------|
D|----------------------|---2----2-2-2-|-------------------|
A|----------------------|------2-------|-0---2-------------|
E|-/7-5--2---2-02-2-2h4-|-0------------|---------0---2-022-|

G|---------------------------|
D|---------------------------|
A|-9-7-----------------------|
E|-----9-8-7-5—7-5-2-0----1--|

G|----------------------|--------------------|---------------------|
D|----------------------|--------------4—2h4-|---------------------|
A|-----0h1------0h1p0h1-|-----0h1------------|-----0h1-----0h1p0h1-|
E|-0-2-----0-02---------|-0-2-----0-02-------|-0-2-----0-02--------|

G|--------------|
D|--------------|
A|-----0h1------|
E|-0-2-----2p0--|


Verse 2

G|---------------------|----------------------|---------------------|
D|---------------------|----------------------|---------------------|
A|-----0h1-----0h1p0h1-|-----0h1------0h1p0h1-|-----0h1-----0h1p0h1-|
E|-0-2-----0-2---------|-0-2-----0-02---------|-0-2-----0-2---------|

G|--------------------|---------------------|---------------------|
D|--------------------|-----0h1-----0h1p0h1-|-----0h1-----0h1p0h1-|
A|-----0h1------------|-0-2-----0-2---------|-0-2-----0-2---------|
E|-0-2-----0-2-3-4----|---------------------|---------------------|

G|---------------------|----------------------|
D|-----2h3-----2h3p2h3-|-----2h3p2h3-22222222-|
A|-2-4-----2-4---------|-2-4------------------|
E|---------------------|----------------------|


Chorus 2

G|--------------------|--------------|-------------------|
D|--------------------|---2----2-2-2-|-------------------|
A|-2-0----------------|------2-------|-0---2-------------|
E|-----2---2-02-2-2h4-|-0------------|---------0---2-022-|

G|----------------------|--------------|-------------------|
D|----------------------|---2----2-2-2-|-------------------|
A|----------------------|------2-------|-0---2-------------|
E|-/7-5--2---2-02-2-2h4-|-0------------|---------0---2-022-|

G|---------------------------|
D|---------------------------|
A|-9-7-----------------------|
E|-----9-8-7-5—7-5-2-0----1--|

G|----------------------|----------------------|----------------------|
D|----------------------|----------------------|----------------------|
A|-----0h1------0h1p0h1-|-----0h1------0h1p0h1-|-----0h1------0h1p0h1-|
E|-0-2-----0-02---------|-0-2-----0-02---------|-0-2-----0-02---------|

G|---------------------|----------------------|----------------------|
D|--------------4-2h4--|----------------------|----------------------|
A|-----0h1-------------|-----0h1------0h1p0h1-|-----0h1------0h1p0h1-|
E|-0-2-----0-02--------|-0-2-----0-02---------|-0-2-----0-02---------|

G|----------------------|----------------------|----------------------|
D|----------------------|---------------4-2h4--|----------------------|
A|-----0h1------0h1p0h1-|-----0h1--------------|-----0h1------0h1p0h1-|
E|-0-2-----0-02---------|-0-2-----0-02---------|-0-2-----0-02---------|

G|----------------------|----------------------|---------------------|
D|----------------------|----------------------|-------------2-------|
A|-----0h1------0h1p0h1-|-----0h1------0h1p0h1-|-----0h1-------------|
E|-0-2-----0-02---------|-0-2-----0-02---------|-0-2-----0-2---------|

G|----------------------|----------------------|----------------------|
D|----------------------|----------------------|----------------------|
A|-----0h1------0h1p0h1-|-----0h1------0h1p0h1-|-----0h1------0h1p0h1-|
E|-0-2-----0-02---------|-0-2-----0-02---------|-0-2-----0-02---------|

G|------------------|
D|------------------|
A|-----0h1-------7\-|
E|-0-2-----2p0------|

G|----------------------|----------------------|
D|-----0h1------0h1p0h1-|-----0h1------0h1p0h1-|
A|-0-2-----0-02---------|-0-2-----0-02---------|
E|----------------------|----------------------|

G|----------------------|------------------|
D|-----2h3------2h3p2h3-|--------0h1-------|
A|-2-4-----2-24---------|-0-2-22------0----|
E|----------------------|------------------|

G|----------------------|----------------------|----------------------|
D|-----2h3----------2-3-|-----2h3----------2-3-|-----2h3----------2-3-|
A|-2-4----------2-4-----|-2-4----------2-4-----|-2-4----------2-4-----|
E|---------0-02---------|---------0-02---------|---------0-02---------|

G|--------------------|
D|-----2h3------------|
A|-2-4-----------010--|
E|---------0-02-------|

Chorus 3

G|--------------------|--------------|-------------------|
D|--------------------|---2----2-2-2-|-------------------|
A|-2-0----------------|------2-------|-0---2-------------|
E|-----2---2-02-2-2h4-|-0------------|---------0---2-022-|

G|----------------------|--------------|---------------------|
D|----------------------|---2----2-2-2-|---------------2-2-2-|
A|----------------------|------2-------|-0---2----------4-4--|
E|-/7-5--2---2-02-2-2h4-|-0------------|---------0---2-------|

G|---------------------------|-----------------|-----------------|
D|---------------------------|-----------------|-4-4-4-4-4-4-4-4-|
A|-9-7-----------------------|-----------------|-----------------|
E|-----9-8-7-5—7-5-2-0----1--|-2-2-2-2-2-2-2-2-|-----------------|

(3:29)
G|----------|----------|----------|-------------4444444444-|
D|----------|----------|----------|-----2------------------|
A|----------|----------|----------|--------0--2------------|
E|-0-0-12\--|-0-0-12\--|-0-0-12\--|-0-0-—0---0-------------|

G|---------------------------|-------------------------|
D|----2----------------------|----2--------------------|
A|--------2—-4-44-2-2h4p2----|--------0--2-2-4-4-5-2---|
E|-0-0-—0--—0------------4-2-|-0-0—-0-—0------------3-2|

G|--------------------------|-----------------------|
D|----2---------------------|-2--2------------------|
A|--------2—-4—-0-4---------|------------2----0-2-2-|
E|-0-0-—0--—0--------3p2--0-|----—03-2-0------------|

G|----------------|-----------------|----------------|
D|-2------------1-|-2---------------|-2------------1-|
A|---2-4------4---|---0--2---2-2----|---2-4----4-4---|
E|-----—----------|----—--------3-0-|----------------|

G|----------------4-|-----------------|-----------------|
D|-22---4-----------|-2\------------1-|-2---------------|
A|---------2---2-2--|----2-4----4-4---|---0-2---2-------|
E|-----—------------|----—------------|----------0-2b-0-|

G|---------------|----------4444-----2-|----------------|
D|-2-----------1-|-2-2-4--------2-24---|-2-2------------|
A|---2-4-4-0-44--|-------2-------------|----0-2---------|
E|-----—---------|---—-----------------|---------0-2b-0-|

G|----------------------|------------------|---------444444--|
D|-2-2------------------|---2------------1-|-2-2-------------|
A|----0-2—2-4-4-5-2-----|-------2-4--4-4---|-----0-2---------|
E|-----—------------3-2-|-0--—-------------|-----------------|

G|------------------|----------------------|-------------------|
D|-2-2--------2-----|--2-------------------|---2-------------1-|
A|-----2-4--4--42---|----0-2--2-4-4-5-2----|-----2-4----24-4---|
E|-----—---------32-|-0---—------------3-2-|-0-----------------|

G|--------------/4-|-----------------|-------------------|
D|-2-2h4-----------|-2-2-----------1-|-2-----------------|
A|-------2-22-22---|-----2-4—-4-4----|---0-2-------------|
E|-----—-----------|----—------------|--------0-2-0-2b-0-|

G|-----------------|--------------------/4-|--------------------|
D|-2-------------1-|-2-2-------------------|-2-2--------------1-|
A|---2-4-4-2-44----|-----0-0-1-2-222222----|-----2-4--44-2-4----|
E|-----—-----------|----—------------------|--------------------|

G|-----------------------|--------------------|---------------2h4-|
D|-2-2-------------------|---2--------------1-|-2-2---------------|
A|-----0-2-2-4-4-5-2-----|-----2-4-44-2-44----|-----0-2-222222----|
E|-----—-------------3-2-|-0--—---------------|-------------------|

G|-------------------|------------------|---------------------2h4-----|
D|-2-2-1-1---------1-|-2-2-1-1----------|-2-2-1-1---------------------|
A|---------4-44-44---|---------2--02-2--|---------4-44-22-0-----------|
E|-----—-------------|----—-------------|-------------------4-----2-0-|

		  

See also:

bass Live - Dolphin΄s Cry bass Foo Fighters - "my Hero" bass Creed - My Sacrifice (ver. 3) bass 3 Doors Down - Loser bass Rage Against The Machine - Killing In The Name Of bass Guns N' Roses - Duff Solo Tokyo
e-chords

Other versions:

bass Guns N' Roses - Rocket Queen bass Guns N' Roses - Rocket Queen (ver. 2)
auto scroll beats size up size down change color hide chords drawings
tab show chords e-chords YouTube Clip e-chords hide all tabs e-chords go to top tab

share