Green Day

home > Green Day

She Bass Tab

Green Day

Difficulty: EasyEasy

by MoRtE%2D

tuner correct add songbook print version text version save to e-mail
chordsukulelecavacokeyboardtabbassdrummharmonicsflute Guitar Pro
chords

She

Year: 1994 - Album: Dookie

  		Intro 
G:---------------------------------------------------------| 
D:--5--5--5--5--5--5--5--5--5--5--5--5--5--5--5--5--5--5---| 
A:---------------------------------------------------------| 
E:---------------------------------------------------------| 
 
Verso 
G:---------------------------------------------------------------------------| 
D:--5-5-5-5-5-5-5-5-5-------------------------------------5-5-5-5-5-5-5-5-5--| 
A:--------------------5-5-5-5-5-5-5-5-5-3-3-3-3-3-3-3-3-3--------------------| 
E:---------------------------------------------------------------------------| 
she, she screams in silence, a sullen riot penetrating through her mind 
 
 
G:------------------------------------------------------------------------------------------------| 
D:--5-5-5-5-5-5-5-5-5---------------------------------------4/5--5\4----5-5-----------------------| 
A:--------------------5-5-5-5-5-5-5-5-5-3-3-3-3-3-3-3-3-3-----------------------------------------| 
E:-----------------------------------------------------------------------------3-3-3-3-3-3-3-3-3--| 
   wai-ting  for  a sign  to  smash  the  silence  with the brick of self control 
 
Refrao: 
G:------------------------------------------------------------------------------------| 
D:------------------------------------------------------------------------------------| 
A:--5--5--5--5--5--5--5--5--5--3--3--3--3--3--3--3--3--3------------------------------| 
E:--------------------------------------------------------3--3--3--3--3--3--3--3--3---| 
are you locked up in a world that's been planned out for you? 
are you feeling  like  a  social  tool    without  a  use? 
 
G:--------------------------------------------------------------------------| 
D:--------------------------------------------------------------------------| 
A:--3-3-3-3---------3-3-3-3---------3-3-3-3-------------5-5-5-5-5-5-5-5-5---| 
E:----------3-3-3-3---------3-3-3-3---------3--3--3--3----------------------| 
scream at me until my ears bleed, i'm taking heed just for you 
 
Verso2: 
G:------------------------------------------------------------------------------ 
D:------------------------------------------------------------------------------ 
A:--------------------5-5-5-5-5-5-5-5-5-3-3-3-3-3-3-3-3-3---------3------------- 
E:--3-3-3-3-3-3-3-3-3---------------------------------------3--3-----3-3-3-3-3-- 
she, she's figured out that all her doubts were someone else's point of view 
wak-ing up this time to smash the silence with the brick of self control 
 
 
(Refrao) 
 
 
 
Continuašao: 
G:--------------------------------------------------------------------------|------- 
D:------------------------------7-5-4---------------------------------------|--2X--- 
A:--------------------5-5-5-5-5-------3-3-3-3--2/3--3/2----3-3------3-------|------- 
E:--3-3-3-3-3-3-3-3-3----------------------------------------------3-3---3--|------- 
 
(Chorus) 
 
end with (3xxx) 
 
 
Caso houver erros, me mande um e-amil: 
[email protected] 
	  

Search Paypal
auto scroll beats size up size down change color hide chords drawings
tab show chords e-chords YouTube Clip e-chords hide all tabs e-chords go to top tab