Green Day

Grouch Bass Tab

Green Day

Difficulty: nolevelnolevel

tuner correct add songbook print version text version save to e-mail
chordsukulelecavacokeyboardtabbassdrumsharmonicsflute Guitar Pro
close

there isn't a video lesson for this song

chords

Grouch

  		

Standard Tuning: EADG

Verse
g----------------------------------|
d----------------------------------|
a------------5-5-----------5-------|
E--5--0-0--5-------5--0-0-----0-0--|

G|---------------------------------|
D|---------------------------------|
A|------------5-5------------------|
E|-5--0-0--5-------5--0-0--5-5-5-5-|

Chorus
G|----------------------------------------|
D|----------------------------------------|
A|-----5-5-----0-0------5-5-----7-7-7-----|
E|--2-------5--------2-------5------------|

	  

Search Paypal
auto scroll beats size up size down change color hide chords drawings
tab show chords e-chords YouTube Clip e-chords hide all tabs e-chords go to top tab

share with facebook