Gorillaz

home > Gorillaz

19-2000 Bass Tab

Gorillaz

Difficulty: EasyEasy

tuner correct add songbook print version text version save to e-mail
chordsukulelecavacokeyboardtabbassdrumsharmonicsflute Guitar Pro
chords

19-2000

  		


this is my first tab tell me what you think. AIM - xCurdy

Verse (0:01)
G|------------------|
D|------------------|
A|-----5------------|
E|-0-4---6--0-5-4---|

Chorus (1:06)
G|--------------------|
D|--------------------|
A|-----5--------------|
E|-0-4---6--0-5-4-0---|

Verse (1:33)
G|------------------|
D|------------------|
A|-----5------------|
E|-0-4---6--0-5-4---|

yah, haha its pretty much the same thing throughout the whole song, so its pretty easy.

	  

Search Paypal
auto scroll beats size up size down change color hide chords drawings
tab show chords e-chords YouTube Clip e-chords hide all tabs e-chords go to top tab