Good Charlotte

home > Good Charlotte

Litttle Things Bass Tab

Good Charlotte

Difficulty: BeginnerBeginner

tuner correct add songbook print version text version save to e-mail
chordsukulelecavacokeyboardtabbassdrumsharmonicsflute Guitar Pro
chords

Litttle Things

  		

play it x4
G|-----------------------------------------------------------------|
D|-----------------------------------------------------------------|
A|--4-4-4-4-4----------------------------------------------------|
E|--------------4-4-3-2-2-2-2-2--2-4---0-----------------------|

Chorus (play it fast) x4
G|--------------------------------------------------------------------------------------------|
D|--------------------------------------------------------------------------------------------|
A|--4-4-4-4-4-4-4-4------------------------------------------------------------------------|
E|---------------------4-4-4-4-4-4-4-4-2-2-2-2-2-2-2-2-5-5-5-5-5-5-5-5---------------|

End of Chorus x4                   1.                                 2.
G|--------------------------|--------------------------|------------------------------------------
D|--------------------------|--------------------------|------------------------------------------
A|--------------------------|--------------------------|------------------------------------------
E|-2-2-2-2---5-5-5-5-----|-2-2-2-2--5--6--7--8---|-2-2-2-2-5-6-7-8-9-10-11-12-13-14-

bak to da top

Outro (slow down ever time)
G|--------------------------------------------------|------|
D|--------------------------------------------------|------|
A|--4-4-4-4-4-------------------------------------|--4*-|
E|---------------4-4-4-3-2-2-2-2-2---2-2-5-0---|-----|

let it ring

listen to da song to get da speed of it and if deres n e more details give me da corrections

	  

Search Paypal
auto scroll beats size up size down change color hide chords drawings
tab show chords e-chords YouTube Clip e-chords hide all tabs e-chords go to top tab