Good Charlotte

home > Good Charlotte

Click Bass Tab

Good Charlotte

Difficulty: nolevelnolevel

tuner correct add songbook print version text version save to e-mail
chordsukulelecavacokeyboardtabbassdrumsharmonicsflute Guitar Pro
chords

Click

  		

                                                                           


                                                                  
                                                               
G||-------------------|-------------------|-------------------|
D||-------------------|-------------------|-------------------|
A||--5----------------|-------------------|-------------------|
E||-------------------|--5----------------|--3----------------|


                                                                                
-------------------|-------------------|-------------------|-------------------|
-------------------|-------------------|-------------------|-------------------|
-------------------|--5----------------|-------------------|-------------------|
--3----------------|-------------------|--5----------------|--3----------------|


                                                                              
-----------------------|--------------------------|--------------------------|
-----------------------|--------------------------|--------------------------|
-----------------------|--5--5--5--5--5--5--5--5--|--------------------------|
--3--3--3--3--3--------|--------------------------|--5--5--5--5--5--5--5--5--|


                                                      
--------------------------|--------------------------|
--------------------------|--------------------------|
--------------------------|--------------------------|
--3--3--3--3--3--3--3--3--|--3--3--3--3--3--3--3--3--|


                                                      
--------------------------|--------------------------|
--------------------------|--------------------------|
--5--5--5--5--5--5--5--5--|--------------------------|
--------------------------|--5--5--5--5--5--5--5--5--|


                                                      
--------------------------|--------------------------|
--------------------------|--------------------------|
--------------------------|--------------------------|
--3--3--3--3--3--3--3--3--|--3--3--3--3--3--3--3--3--|


                                                        
|---------------------------|--------------------------|
|*--------------------------|--------------------------|
|*--5--5--5--5--5--5--5--5--|--------------------------|
|---------------------------|--5--5--5--5--5--5--5--5--|


                                                        
--------------------------|---------------------------||
--------------------------|--------------------------*||
--------------------------|--------------------------*||
--3--3--3--3--3--3--3--3--|--3--3--3--3--3--3--3--3---||


                                                       
---------------------------|--------------------------|
*--------------------------|--------------------------|
*--5--5--5--5--5--5--5--5--|--------------------------|
---------------------------|--5--5--5--5--5--5--5--5--|


                                                        
--------------------------|---------------------------||
--------------------------|--------------------------*||
--------------------------|--------------------------*||
--3--3--3--3--3--3--3--3--|--3--3--3--3--3--3--3--3---||


                                                       
---------------------------|--------------------------|
*--------------------------|--------------------------|
*--5--5--5--5--5--5--5--5--|--------------------------|
---------------------------|--5--5--5--5--5--5--5--5--|


                                                      
--------------------------|--------------------------|
--------------------------|--------------------------|
--------------------------|--------------------------|
--7--7--7--7--7--7--7--7--|--3--3--3--3--3--3--3--3--|


                                                      
--------------------------|--------------------------|
--------------------------|--------------------------|
--5--5--5--5--5--5--5--5--|--------------------------|
--------------------------|--5--5--5--5--5--5--5--5--|


                                                        
--------------------------|---------------------------||
--------------------------|--------------------------*||
--------------------------|--------------------------*||
--3--3--3--3--3--3--3--3--|--3--3--3--3--3--3--3--3---||


                                                      
--------------------------|--------------------------|
--------------------------|--------------------------|
--5--5--5--5--5--5--5--5--|--------------------------|
--------------------------|--5--5--5--5--5--5--5--5--|


                                                      
--------------------------|--------------------------|
--------------------------|--------------------------|
--------------------------|--------------------------|
--3--3--3--3--3--3--3--3--|--3--3--3--3--3--3--3--3--|


                                                      
--------------------------|--------------------------|
--------------------------|--------------------------|
--5--5--5--5--5--5--5--5--|--------------------------|
--------------------------|--5--5--5--5--5--5--5--5--|


                                                      
--------------------------|--------------------------|
--------------------------|--------------------------|
--------------------------|--------------------------|
--3--3--3--3--3--3--3--3--|--3--3--3--3--3--3--3--3--|


                                                        
|---------------------------|--------------------------|
|*--------------------------|--------------------------|
|*--5--5--5--5--5--5--5--5--|--------------------------|
|---------------------------|--5--5--5--5--5--5--5--5--|


                                                        
--------------------------|---------------------------||
--------------------------|--------------------------*||
--------------------------|--------------------------*||
--7--7--7--7--7--7--7--7--|--3--3--3--3--3--3--3--3---||


                                                       
---------------------------|--------------------------|
*--------------------------|--------------------------|
*--5--5--5--5--5--5--5--5--|--------------------------|
---------------------------|--5--5--5--5--5--5--5--5--|


                                                        
--------------------------|---------------------------||
--------------------------|--------------------------*||
--------------------------|--------------------------*||
--7--7--7--7--7--7--7--7--|--3--3--3--3--3--3--3--3---||


                                                       
---------------------------|--------------------------|
*--------------------------|--------------------------|
*--5--5--5--5--5--5--5--5--|--------------------------|
---------------------------|--5--5--5--5--5--5--5--5--|


                                                      
--------------------------|--------------------------|
--------------------------|--------------------------|
--------------------------|--------------------------|
--7--7--7--7--7--7--7--7--|--3--3--3--3--3--3--3--3--|


                                                      
--------------------------|--------------------------|
--------------------------|--------------------------|
--5--5--5--5--5--5--5--5--|--------------------------|
--------------------------|--5--5--5--5--5--5--5--5--|


                                                                            
--------------------------|---------------------------||-------------------|
--------------------------|--------------------------*||-------------------|
--------------------------|--------------------------*||--5----------------|
--3--3--3--3--3--3--3--3--|--3--3--3--3--3--3--3--3---||-------------------|


                                                                                
-------------------|-------------------|-------------------|-------------------|
-------------------|-------------------|-------------------|-------------------|
-------------------|-------------------|-------------------|--5----------------|
--5----------------|--3----------------|--3----------------|-------------------|


                                                            
-------------------|-------------------|-------------------|
-------------------|-------------------|-------------------|
-------------------|-------------------|-------------------|
--5----------------|--3----------------|--3----------------|


                                                        
|---------------------------|--------------------------|
|*--------------------------|--------------------------|
|*--5--5--5--5--5--5--5--5--|--------------------------|
|---------------------------|--5--5--5--5--5--5--5--5--|


                                                                              
--------------------------|---------------------------||---------------------|
--------------------------|--------------------------*||*--------------------|
--------------------------|--------------------------*||*--5----5------------|
--3--3--3--3--3--3--3--3--|--3--3--3--3--3--3--3--3---||---------------------|


                                                               
--------------------|--------------------|--------------------|
--------------------|--------------------|--------------------|
--------------------|--------------------|--------------------|
--5----5------------|--7----7------------|--3----3------------|


                                                                     
--------------------|--------------------|--------------------------|
--------------------|--------------------|--------------------------|
--5----5------------|--------------------|--------------------------|
--------------------|--5----5------------|--3--3--3--3--3--3--3--3--|


                                                         
---------------------------||---------------------------|
--------------------------*||*--------------------------|
--------------------------*||*--5--5--5--5--5--5--5--5--|
--3--3--3--3--3--3--3--3---||---------------------------|


                                                      
--------------------------|--------------------------|
--------------------------|--------------------------|
--------------------------|--------------------------|
--5--5--5--5--5--5--5--5--|--3--3--3--3--3--3--3--3--|


                           3x                                        
---------------------------||-------------------|-------------------|
--------------------------*||-------------------|-------------------|
--------------------------*||--5----------------|-------------------|
--3--3--3--3--3--3--3--3---||-------------------|--5----------------|


                                         
-------------------|-------------------||
-------------------|-------------------||
-------------------|-------------------||
--3----------------|--3----------------||

	  

Search Paypal
auto scroll beats size up size down change color hide chords drawings
tab show chords e-chords YouTube Clip e-chords hide all tabs e-chords go to top tab