Gnarles Barkley

home > Gnarles Barkley

Crazy Bass Tab

Gnarles Barkley

Difficulty: nolevelnolevel

by visitendmnovas

tuner correct add songbook print version text version save to e-mail
chordsukulelecavacokeyboardtabbassdrumsharmonicsflute Guitar Pro
chords

Crazy

	  Crazy Bass Tab by Gnarls Barkley, www.Ultimate-Guitar.Com 
 
I grew tired of seeing this done wrong on every bass/guitar website so I tabbed it 
People say their tabs are 100% correct and then its complete crap. This is 100% correct, 
the live video... Those stormtroopers realy know what they're doing ^_^... 
 
Gnarls Barkley 
Crazy 
 
Standard Tuning 
 
Intro 
|-----------| 
|-----------| 
|10-10-10-10| 
|-----------| 
 
Verse/Chorus 
 
|---------|--------------|----------|--------------|----------| 
|10-101010-10-10-101010-10-13-131313-13-13-131313-13----------| 
|---------|--------------|----------|--------------|-11-111111| 
|---------|--------------|----------|--------------|----------| 
 
 
|--------------|----------|--------------|--| Repeat x3 
|--------------|----------|--------------|--| 
|-11-11-111111-11-10-101010-10-10-101010-10-| 
|--------------|----------|--------------|--| 
 
 Bridge 
|---------|--------------|----------|--------------|----------| 
|10-101010-10-10-101010-10----------|--------------|-13-131313| 
|---------|--------------|-11-111111-11-11-111111-11----------| 
|---------|--------------|----------|--------------|----------| 
 
 
|--------------|----------|--------------|--| 
|-13-13-131313-13---------|--------------|--| 
|--------------|--10-101010-10-10-101010-10-| 
|--------------|----------|--------------|--| 
 
Verse/Chorus 
 
|---------|--------------|----------|--------------|----------| 
|10-101010-10-10-101010-10-13-131313-13-13-131313-13----------| 
|---------|--------------|----------|--------------|-11-111111| 
|---------|--------------|----------|--------------|----------| 
 
 
|--------------|----------|--------------|--| Repeat x2 
|--------------|----------|--------------|--| 
|-11-11-111111-11-10-101010-10-10-101010-10-| 
|--------------|----------|--------------|--| 
 
 Bridge 
|---------|--------------|----------|--------------|----------| 
|10-101010-10-10-101010-10----------|--------------|-13-131313| 
|---------|--------------|-11-111111-11-11-111111-11----------| 
|---------|--------------|----------|--------------|----------| 
 
 
|--------------|----------|--------------|--| 
|-13-13-131313-13---------|--------------|--| 
|--------------|--10-101010-10-10-101010-10-| 
|--------------|----------|--------------|--| 
 
Verse/Chorus 
 
|---------|--------------|----------|--------------|----------| 
|10-101010-10-10-101010-10-13-131313-13-13-131313-13----------| 
|---------|--------------|----------|--------------|-11-111111| 
|---------|--------------|----------|--------------|----------| 
 
 
|--------------|----------|--------------|--| Repeat x2 
|--------------|----------|--------------|--| 
|-11-11-111111-11-10-101010-10-10-101010-10-| 
|--------------|----------|--------------|--| 
 
 
 Ending 
|---------|--------------|----------|--------------|----------| 
|10-101010-10-10-101010-10----------|--------------|-13-131313| 
|---------|--------------|-11-111111-11-11-111111-11----------| 
|---------|--------------|----------|--------------|----------| 
 
 
|--------------|----------|--------------|----| 
|-13-13-131313-13---------|--------------|--10| 
|--------------|--10-101010-10-10-101010-10---| 
|--------------|----------|--------------|----| 
 
El Fin... 
 
 
Tablature Legend 
---------------- 
 h   - hammer-on 
 p   - pull-off 
 b   - bend 
 pb  - pre-bend 
 r   - bend release (if no number after the r, then release immediately) 
 /\  - slide into or out of (from/to "nowhere") 
 s   - legato slide 
 S   - shift slide 
 - natural harmonic 
{n}  - artificial harmonic 
n(n) - tapped harmonic 
 ~   - vibrato 
 tr  - trill 
 T   - tap 
 TP  - trem. picking 
 PM  - palm muting 
\n/  - tremolo bar dip; n = amount to dip 
 \n  - tremolo bar down 
 n/  - tremolo bar up 
/n\  - tremolo bar inverted dip 
 =   - hold bend; also acts as connecting device for hammers/pulls 
 <> - volume swell (louder/softer) 
 x   - on rhythm slash represents muted slash 
 o   - on rhythm slash represents single note slash 
 
Misc Legend 
----------- 
 |  - bar 
||  - double bar 
||o - repeat start 
o|| - repeat end 
*|  - double bar (ending) 
 :  - bar (freetime) 
 $  - Segno 
 &  - Coda 
Tempo markers -  = BPM(8/16=s8/s16), where s8 = swing 8ths, s16 = swing 16ths 
 
Intellectual Property: Chris Hambrick, The_Black_Waltz. 
Any questions comments? 
 

	  

there isn't a video lesson for this song

request
Search
auto scroll beats size up size down change color hide chords drawings
tab show chords e-chords YouTube Clip e-chords hide all tabs e-chords go to top tab