Garbage

Stupid Girl Bass Tab

Garbage

Difficulty: nolevelnolevel

tuner correct add songbook print version text version save to e-mail
chordsukuleleukulelecavacokeyboardtabbassdrumsharmonicsflute Guitar Pro
close

there isn't a video lesson for this song

chords

Stupid Girl

Year: 1995 - Album: Absolute Garbage

  		

G|--------------------------------------|
D|--4-2---------------4-2--2-4----------|
A|-----4-2-2-0-2---------4-----0-2------|
E|-2----2--------2-0-2----2-------0-2-2-|

G|--------------------------------------|
D|--4-2--4------------4-2--2-4----------|
A|-----4---2-0-2---------4-----0-2------|
E|-2----2--------2-0-2----2-------0-2-2-|

G|--------------------------------------|
D|--4-2---------------4-2--2-4----------|
A|-----4-2-2-0-2---------4-----0-2------|
E|-2----2--------2-2-2----2-------0-2-2-|

	  

auto scroll beats size up size down change color hide chords drawings
tab show chords e-chords YouTube Clip e-chords hide all tabs e-chords go to top tab

share with facebook

Search Paypal