Franz Ferdinand

Don't Start

Franz Ferdinand

bass

by  TERCMORAES

save to print version add songbook text version e-mail correct tuner
chordsukulelecavacokeyboardtabbassdrumsharmonicaflute Guitar Pro
close

there isn't a video lesson for this song

chords

Don't Start

	  		
Verse 
G|---------------------------------------------------| 
D|---------------------------------------------------| 
A|---------------------------------------------------| 
E|-11--11--8--8--4--4--8--8--4--4--11--11--8--8--9--9| x3 

Chorus 
G|-----------------------------------------------------| 
D|-----------------------------------------------------| 
A|-----------------------------------------------------| 
E|-11--11--11-8-8--8-4--4-4-8-8--8-4--4-4-11-11--11-8-8| x4 

Verse 
G|------------------------------------| 
D|------------------------------------| 
A|------------------------------------| 
E|-11-11-8-8-4-4-8-8-4-4-11-11-8-8-9-9| x4 

Chorus 
G|-----------------------------------------------------| 
D|-----------------------------------------------------| 
A|-----------------------------------------------------| 
E|-11--11--11-8-8--8-4--4-4-8-8--8-4--4-4-11-11--11-8-8| x4 

Other part 
G|--------------------------------------------| 
D|--------------------------------------------| 
A|--------------------------------------------| 
E|-------11-11-----4-4---4-4---4-4-5-5-6-6-8-8| 

Chorus 
G|-----------------------------------------------------| 
D|-----------------------------------------------------| 
A|-----------------------------------------------------| 
E|-11--11--11-8-8--8-4--4-4-8-8--8-4--4-4-11-11--11-8-8| x4 
		  

See also:

bass Franz Ferdinand - Evil And Heathen bass Franz Ferdinand - The Dark Of The Matinee (ver. 2) bass Franz Ferdinand - Tell Her Tonight (ver. 2) bass Franz Ferdinand - Take Me Out (ver. 3) bass Franz Ferdinand - The Dark Of The Matinee bass Franz Ferdinand - 40 Ft
e-chords

Other versions:

bass Franz Ferdinand - Don't Start bass Dua Lipa - Don't Start Now
auto scroll beats size up size down change color hide chords drawings
tab show chords e-chords YouTube Clip e-chords hide all tabs e-chords go to top tab

share