Finch

Track

Finch

bass

save to print version add songbook text version e-mail correct tuner
chordsukulelecavacokeyboardtabbassdrumsharmonicaflute Guitar Pro
close

there isn't a video lesson for this song

chords

Track

	  		




 
 What It Is To Burn
Album: What It Is To Burn

Intro
G-----------------------------------------------------------------
D-----------------------------------------------------------------
A-----------------3-3-3-3-4-4-4-4-----------------3-3-3-3-4-4-4-4-
E-8-8-8-8-8-8-8-8-----------------5-5-5-5-5-5-5-5-----------------

G--------------------------------------------------------------
D--------------------------------------------------------------
A-----------------3-3-3-3-4-4-4-4------------------------------
E-3-3-3-3-3-3-3-3------------------1-1-1-1-1-1-1-1-1-1-1-1-1-1-

G-----------------------------------------------------------------
D-----------------------------------------------------------------
A-----------------3-3-3-3-4-4-4-4-----------------3-3-3-3-4-4-4-4-
E-8-8-8-8-8-8-8-8-----------------5-5-5-5-5-5-5-5-----------------

G---------------------------------------------------------
D---------------------------------------------------------
A-----------------3-3-3-3-4-4-4-4-------------------------
E-3-3-3-3-3-3-3-3-----------------1-1-1-1-1-1-1-1-1-1-1-1-

Verse 1 x2
G---------------
D---------------
A---------------
E-8---5---3---1-

Chorus 1
G-----------------------------------------------------------------
D-----------------------------------------------------------------
A-----------------3-3-3-3-4-4-4-4-----------------3-3-3-3-4-4-4-4-
E-8-8-8-8-8-8-8-8-----------------5-5-5-5-5-5-5-5-----------------

G--------------------------------------------------------------
D--------------------------------------------------------------
A-----------------3-3-3-3-4-4-4-4------------------------------
E-3-3-3-3-3-3-3-3------------------1-1-1-1-1-1-1-1-1-1-1-1-1-1-

G-----------------------------------------------------------------
D-----------------------------------------------------------------
A-----------------3-3-3-3-4-4-4-4-----------------3-3-3-3-4-4-4-4-
E-8-8-8-8-8-8-8-8-----------------5-5-5-5-5-5-5-5-----------------

G---------------------------------------------------------
D---------------------------------------------------------
A-----------------3-3-3-3-4-4-4-4-------------------------
E-3-3-3-3-3-3-3-3-----------------1-1-1-1-1-1-1-1-1-1-1-1-

Verse 2 x3
G---------------
D---------------
A---------------
E-8---5---3---1-

Chorus 2
G-----------------------------------------------------------------
D-----------------------------------------------------------------
A-----------------3-3-3-3-4-4-4-4-----------------3-3-3-3-4-4-4-4-
E-8-8-8-8-8-8-8-8-----------------5-5-5-5-5-5-5-5-----------------

G--------------------------------------------------------------
D--------------------------------------------------------------
A-----------------3-3-3-3-4-4-4-4------------------------------
E-3-3-3-3-3-3-3-3------------------1-1-1-1-1-1-1-1-1-1-1-1-1-1-

G-----------------------------------------------------------------
D-----------------------------------------------------------------
A-----------------3-3-3-3-4-4-4-4-----------------3-3-3-3-4-4-4-4-
E-8-8-8-8-8-8-8-8-----------------5-5-5-5-5-5-5-5-----------------

G---------------------------------------------------------
D---------------------------------------------------------
A-----------------3-3-3-3-4-4-4-4-------------------------
E-3-3-3-3-3-3-3-3-----------------1-1-1-1-1-1-1-1-1-1-1-1-

Bridge
G-------------------------------------------------------------------
D-------------66----------------------------------------------------
A-4-444-44-44----4--------------33------------------------------/10-
E-------------------1-111-11-11----1--3-333-33-33-333--4-444-44-----

G-------------------------------------------------------------------------
D-------------66----------------------------------------------------------
A-4-444-44-44----4--------------33-------------------------------------10-
E-------------------1-111-11-11----1--3-333-33-33-333--4-4-4-4-4-4-4-4----

Chorus 3 x4
G-----------------------------------------------------------------
D-----------------------------------------------------------------
A-----------------3-3-3-3-4-4-4-4-----------------3-3-3-3-4-4-4-4-
E-8-8-8-8-8-8-8-8-----------------5-5-5-5-5-5-5-5-----------------

G--------------------------------------------------------------
D--------------------------------------------------------------
A-----------------3-3-3-3-4-4-4-4------------------------------
E-3-3-3-3-3-3-3-3------------------1-1-1-1-1-1-1-1-1-1-1-1-1-1-

G-----------------------------------------------------------------
D-----------------------------------------------------------------
A-----------------3-3-3-3-4-4-4-4-----------------3-3-3-3-4-4-4-4-
E-8-8-8-8-8-8-8-8-----------------5-5-5-5-5-5-5-5-----------------

G--------------------------------------------------------------------
D--------------------------------------------------------------------
A-----------------3-3-3-3-4-4-4-4------------------------------------
E-3-3-3-3-3-3-3-3-----------------1-1-1-1-1-1-1-1-1-1-1-1-1-1-1-1-3*-

*Play on the fourth time

I didn't see any good tabs for 'What It Is To Burn' so I decided to tab it out. The order is already there. Please rate this tab.

		  

See also:

bass Coldplay - A Whisper bass Eric Clapton - Layla bass Eric Clapton - Cocain (ver. 2) bass The Beatles - A Day in the Life bass Coldplay - The Scientist (ver. 2) bass Coldplay - Clocks (ver. 3)
e-chords

Other versions:

bass Finch - Track bass Finch - Track (ver. 2)
auto scroll beats size up size down change color hide chords drawings
tab show chords e-chords YouTube Clip e-chords hide all tabs e-chords go to top tab

share